Song name
# A B C D E F G H I J K L M N O P Q R S T U V W X Y Z

Tracy Chapman - Before Easter tab

Highlighted       Show chord diagrams
Cm:  335543               
Fm:  133111               
G :  355233               
A#:  113331  [2]: 688766  
G#:  466544               



   E||-----------------|-----------------|
   B||-3---------------|-1---------------|
   G||-----------------|-----------------|
   D||-----------------|-----------------|
   A||-----------------|-----------------|
   E||-----------------|-----------------|
I may beg,      beg for money

   E||-1---------------|-----------------|
   B||-----------------|-4---------------|
   G||-----------------|-----------------|
   D||-----------------|-----------------|
   A||-----------------|-----------------|
   E||-----------------|-----------------|
I may lie    and lay my body down

   E||-----------------|-----------------|
   B||-3---------------|-1---------------|
   G||-----------------|-----------------|
   D||-----------------|-----------------|
   A||-----------------|-----------------|
   E||-----------------|-----------------|
      Sell what I would give with love

   E||-1---------------|-----------------|
   B||-----------------|-4---------------|
   G||-----------------|-----------------|
   D||-----------------|-----------------|
   A||-----------------|-----------------|
   E||-----------------|-----------------|
       One day   before Easter comes

   E||-----------------|-----------------|
   B||-3---------------|-1---------------|
   G||-----------------|-----------------|
   D||-----------------|-----------------|
   A||-----------------|-----------------|
   E||-----------------|-----------------|       Cm
But I won't let   Jesus find,              find me


   Cm
I walk, I eat, I sleep

In these streets I may be found
  Fm
Alive or dead or just reborn
Cm
One day before Easter comes
       G               Fm         Cm
But I won't let Jesus find, find me


A#             Cm
  Jesus knows     what I've done
   Fm
I won't let him lift me up
   G#
Before I can turn to look for him
   A#[2]
Before I can turn to look for him
    Fm           A#[2]       Cm
If Jesus comes around     again


       Cm
I'll cry, I'll cry, I'll cry for help

I'll let you be the one
     Fm
To try to redeem the sins of man
  Cm
One day before Easter comes
       G               Fm         Cm
But I won't let Jesus find, find me


           Cm
I'm gonna hide,     hide from him

Hide myself but not the sin
     Fm...
    
     Cm...
    

           Cm
I'm gonna hide,     hide from him

Hide myself but no the sin
    Fm           G         Cm
If Jesus comes around    again

              Fm
I've got the rock, the needle
     G                  Cm
The bottle of sorrow
     Fm        G           Cm
And Jesus,  Jesus, Jesus knows
Tap to rate this tab
# A B C D E F G H I J K L M N O P Q R S T U V W X Y Z