Song name
# A B C D E F G H I J K L M N O P Q R S T U V W X Y Z

Tracy Starr - Make Believe tab

Jeremy Larson - Make Believe

My first tab on UG, enjoy!


Starts with..
|----------------|----------------|----------------|----------------|
|----------------|--------1-------|----------------|----------------|
|--------5-------|----3------3----|----6---6--5----|----3--5-6-5----|
|----6------6----|----3-----------|----6-----------|----------------|
|----6-----------|----1-----------|----4-----------|----------------|
|----4-----------|----------------|----------------|----------------|

Then this comes in sometimes..
|----------------|----------------|----------------|----------------|
|--------4-------|--------4--1----|--------4-------|----------------|
|-----------5----|----3-----------|----6------6----|----3--5-6-5----|
|----6-----------|----3-----------|----6-----------|----------------|
|----6-----------|----1-----------|----4-----------|----------------|
|----4-----------|----------------|----------------|----------------|


Repeat



http://www.jeremylarsonmusic.com/
http://www.myspace.com/jeremylarson
Tap to rate this tab
# A B C D E F G H I J K L M N O P Q R S T U V W X Y Z