Song name
# A B C D E F G H I J K L M N O P Q R S T U V W X Y Z

Trading Yesterday - Shattered tab

No Capo-Standard tuning

Verse 1

Yesterday I died, tomorrow's bleeding
Fall into your sunlight
e|--------------------0---1----------------------3---1-------|
B|---------1------------1-----------1--------------1---------|
G|-----2-3----------0-----------2-3--------------------------|
D|---0------------2-----------0----------------2-------------|   (2x)
A|-1------------3-----------1----------------3---------------|
E|-----------------------------------------1-----------------| 

The future's open wide beyond believing
To know why hope dies
e|--------------------0---1---------1------------1-----------|
B|---------1------------1-------------1------------1---------|
G|-----2-3----------0----------------------------------------|
D|---0------------2-----------0-3-3----------2-3-------------|
A|-1------------3--------------------------3-----------------|
E|-----------------------------------------------------------|

Losing what was found, a world so hollow
Suspended in a compromise
e|--------------------0---1----------------------3---1-------|
B|---------1------------1-----------1--------------1---------|
G|-----2-3----------0-----------2-3--------------------------|
D|---0------------2-----------0----------------2-------------|
A|-1------------3-----------1----------------3---------------|
E|-----------------------------------------1-----------------|

The silence of this sound is soon to follow
Somehow sundown.
e|--------------------0---1---------1------------1-----------|
B|---------1------------1-------------1------------1---------|
G|-----2-3----------0----------------------------------------|
D|---0------------2-----------0-3-3----------2-3-------------|
A|-1------------3--------------------------3-----------------|
E|-----------------------------------------------------------|

BRIDGE 
... And finding answers 
Is forgetting all of the questions we call home 
Passing the graves of the unknown
e|------------------------------------------------------|
B|---------1----------1--------1--------1---------------|
G|-------2----------3--------2--------------------------|
D|-----2-------0--3--------2--------2-3-----------------|
A|---0-------1-----------0--------1---------------------|
E|------------------------------------------------------|

e|-----------------------------------------5------------|
B|---------1----------1--------1--------1---------------|
G|-------2----------3--------2--------------------------|
D|-----2-------0--3--------2--------2-3-----------------|
A|---0-------1-----------0--------1---------------------|
E|------------------------------------------------------|

(Repeat verse 1 for Verse 2 and another bridge)

Verse 2
As reason clouds my eyes with splendor fading
Illusions of the sunlight
And the reflection of a lie will keep me waiting
A love gone for so long

Bridge
And this day's ending
Is the proof of time killing all the faith I know
Knowing that faith is all I hold

Chorus
And i've lost ...And i cant understand...........
Dm                    Bm

Why my hearth is ...Rejecting your love..........
F		       C

And I've lost who I am
And I can't understand
Why my heart is so broken
Rejecting your love
Without love gone wrong
Lifeless words carry on
But I know, all I know
Is that the end's beginning

Who I am from the start
Take me home to my heart
Let me go and I will run
I will not be silenced
All this time spent in vain
Wasted years, wasted gain
All is lost, hope remains
And this war's not over

There's a light, there's the sun
Taking all the shattered ones
To the place we belong
And his love will conquer all (2x second time louder)


Outro
Yesterday I died, tomorrow's bleeding
Fall into your sunlight
e|--------------------0---1----------------------3---1-------|
B|---------1------------1-----------1--------------1---------|
G|-----2-3----------0-----------2-3--------------------------|
D|---0------------2-----------0----------------2-------------|   (2x)
A|-1------------3-----------1----------------3---------------|
E|-----------------------------------------1-----------------|
Tap to rate this tab
 
# A B C D E F G H I J K L M N O P Q R S T U V W X Y Z