Guitaretab - guitar tabs
Song name
# A B C D E F G H I J K L M N O P Q R S T U V W X Y Z

Traditional Irish - Cooleys Reel tab

-----------------------------------------------------------------------------------------
                             COOLEY'S REEL - Traditional Irish
-----------------------------------------------------------------------------------------
Tabbed by: sfingers
Email: lukewebber@gmail.com

Tuning: EADGBe
Tempo: 210bpm




e|---------------------------||----------------------------|----------------------------|
B|---------------------------||-----0--0-----0--------0----|--0--------0--3--0----------|
G|---------------------------||o----------2----------------|--------2-----------2--0----|
D|----------------------0----||o-2-----------------2-------|----------------------------|
A|---------------------------||--------------2-------------|--------------2-------------|
E|---------------------------||--0-------------------------|--0-------------------------|


e|----------------------------|----------------------------|----------------------------|
B|--------------0-------------|--------------3-------------|-----0--0-----0--------0----|
G|--------2-----------2-------|-----------2-----2----------|-----------2----------------|
D|--4--0-----0-----0-----0----|--4--0--4-----------4--0----|--2-----------------2-------|
A|--5-----------0-------------|--5-----------0-------------|--------------2-------------|
E|----------------------------|----------------------------|--0-------------------------|

[ Tab from: http://www.guitaretab.com/t/traditional-irish/244085.html ]
e|-----------------0--2--3----|--5--2--3--0----------------|---------------------------||
B|--0--------0--3-------------|--------------3--0----------|---------------------------||
G|--------2-------------------|--------------------2-------|-----------------0--------o||
D|----------------------------|--0--------------------4----|--0--2--4--0--2-----4--0--o||
A|--------------2-------------|--------------0-------------|--0------------------------||
E|--0-------------------------|----------------------------|--------------0------------||


e||-----------------3--2--3---|--0-----------0-----3-------|--0-----------3--0----------|
B||---------------------------|-----0--0--0-----0-----0----|-----0--0--0--------3--0----|
G||o--------------------------|----------------------------|----------------------------|
D||o-0--2--4--0--2------------|----------------------------|----------------------------|
A||--0------------------------|--------------2-------------|--------------2-------------|
E||--------------0------------|--0-------------------------|--0-------------------------|


e|----------------------------|-----------------------2----|--0-----------0-----3-------|
B|--------------3--------0----|--------------0--2--3-------|-----0--0--0-----0-----0----|
G|--2--------2-----2----------|--2--------2----------------|----------------------------|
D|--0-----4-----------4-------|--0--0--4-------------------|----------------------------|
A|--------------0-------------|--------------0-------------|--------------2-------------|
E|----------------------------|----------------------------|--0-------------------------|


e|--0--------------0--2--3----|--5--2--3--0---------------||----------------------------|
B|-----3--0--2--3-------------|--------------3--0---------||----------------------------|
G|----------------------------|--------------------2-----o||-----------------0----------|
D|----------------------------|--0--------------------4--o||--0--2--4--0--2-----4--0----|
A|--------------2-------------|--------------0------------||--0-------------------------|
E|--0-------------------------|---------------------------||--------------0-------------|


e|---------------------------||
B|---------------------------||
G|--2------------------------||
D|--2------------------------||
A|--0------------------------||
E|---------------------------||

Related for Cooleys Reel tab
Cooleys Reel chords by Traditional Irish