Song name
# A B C D E F G H I J K L M N O P Q R S T U V W X Y Z

Traditional Russian - Katyusha tab

Help us improve GuitareTab! Take a short survey!
Katyusha, Katusha or Katjusha (Russian: Катюша) is a 
Soviet wartime song about a girl longing for her beloved, who is away on military 
The music was composed in 1938 by Matvei Blanter and the lyrics were written by 
Mikhail Isakovsky .

======
1|----------------------------------------------------------------------------------------|
2|----------------------------------------------------------------------------------------|
3|------0-2-3-0-3-3-2-0-2----2-3\5-2-5-5-3-2-0---2-3--5-7---8-6--8-6--4-4-3\1-3-----------|
4|------------------------0-----------------------------------------------------0---------|
5|----------------------------------------------------------------------------------------|
6|----------------------------------------------------------------------------------------|

1|----------------------------------------------------------------------------------------|
2|------4-1-3---------------4-1-3---------------------------------------------------------|
3|------------3-5-5-3-2-0---------3-5-5-3-2-0---------------------------------------------|
4|----------------------------------------------------------------------------------------|
5|----------------------------------------------------------------------------------------|
6|----------------------------------------------------------------------------------------|
Related for Katyusha tab