Song name
# A B C D E F G H I J K L M N O P Q R S T U V W X Y Z

Traditional Russian - Katyusha tab

Version 1

1|-------------------------------------------------5-3-5-3-1-1-0---0----------|
2|---0-1---1-1-0---0------0-1-3-1-3-3-1-0------------------------3------------|
3|-2-----2-------2------------------------2------2-------------------2--------|
4|-------------------2--------------------------------------------------------|
5|----------------------------------------------------------------------------|
6|----------------------------------------------------------------------------|

1|-1---0---------------------------------------------------------------------|
2|---3---1-3-3-1-0-----------------------------------------------------------|
3|-----------------2---------------------------------------------------------|
4|---------------------------------------------------------------------------|
5|---------------------------------------------------------------------------|
6|---------------------------------------------------------------------------|

Version 2
1|----------------------------------------------5-3-5-3-1-1-0---0------------|
2|------------------------------------------------------------3--------------|
3|-2-4-5-2-5-5-4-2-4----4-5-7-4-7-7-5-4-2-----2-------------------2----------|
4|-------------------2-------------------------------------------------------|
5|---------------------------------------------------------------------------|
6|---------------------------------------------------------------------------|

1|---------------------------------------------------------------------------|
2|-6-3-5-1-3-3-1-0-----------------------------------------------------------|
3|-----------------2---------------------------------------------------------|
4|---------------------------------------------------------------------------|
5|---------------------------------------------------------------------------|
6|---------------------------------------------------------------------------|
Tap to rate this tab
# A B C D E F G H I J K L M N O P Q R S T U V W X Y Z