Song name
# A B C D E F G H I J K L M N O P Q R S T U V W X Y Z

Traditional Serbian - Mars Na Drinu tab

MARS NA DRINU! CCCC!
Tabbed by:Dowla666
Tuning:Standard(EADGBE)
Here is what you need to do.
Evo sta trebate da naucite!

INTRO:

E|-------------------------------|
B|-------------------------------|
G|-------------------------------|
D|3-333-3-3-333-3-3-333-3-3-333-3|
A|1-111-1-1-111-1-1-111-1-1-111-1|
E|-------------------------------|

E|-----5----7--5--4--5--3--2--5--|
B|-7-----------------------------|
G|-------------------------------|
D|-------------------------------|
A|-------------------------------|
E|-------------------------------|

E|-7----5---4--5--7--5--3--2--5--|
B|-------------------------------|
G|-------------------------------|
D|-------------------------------|
A|-------------------------------|
E|-------------------------------|

E|2--3--5--3-3--5--7--7--7--5--7--8--10--8--7--5--7--5--5p4h5|
B|----------3------------------------------------------------|
G|-----------------------------------------------------------|
D|-----------------------------------------------------------|
A|-----------------------------------------------------------|
E|-----------------------------------------------------------|

E|--4--5--7--5--4----4--5--7--5--4-----------|
B|-----------------6--------------6--6--5--5^|
G|-------------------------------------------|
D|-------------------------------------------|
A|-------------------------------------------|
E|-------------------------------------------|

INTRO
Then the tab again...

That's it! To Je To!
Enjoy-Uzivajte!
http://www.youtube.com/watch?v=-YsJ3abRlD4&feature=related
Tap to rate this tab
# A B C D E F G H I J K L M N O P Q R S T U V W X Y Z