Song name
# A B C D E F G H I J K L M N O P Q R S T U V W X Y Z

Trae Tha Truth - I Wont Change tab

http://www.myspace.com/traethatruth


Figured the riff throughout the song out by ear, sounds perfect when you play along


e|------------------------------------------------------------------|
B|--13>--11>--------------------------------------------------------|
D|------------10-8/10----8-10-10b12r10---8-10-10b12r10p8h10---------|
G|--------------------10--------------10----------------------------|
A|------------------------------------------------------------------|
E|------------------------------------------------------------------|

e|--/11-10-------------------------------------------------------------|
B|--------11/13--------------------------------------------------------|
D|------------   10-8-10----8-10-10/12-8/10--8-10-10/12--13p12--10-----|
G|---------------------10----------------10----------------------------|
A|---------------------------------------------------------------------|
E|---------------------------------------------------------------------|


e|------/11-10-------------------------------------------------------------|
B|-------------11-13-------------------------------------------------------|
D|--8----------------12b-10-12 12---8-10-10b12r10----8-10-10b12r10p8h10----|
G|-------------------------------10--------------10------------------------|
A|-------------------------------------------------------------------------|
E|-------------------------------------------------------------------------|


e|--/11-10-------------------------------------------------------------|
B|--------11/13--------------------------------------------------------|
D|------------   10-8-10----8-10-10/12-8/10--8-10-10/12--13p12--10-----|
G|---------------------10----------------10----------------------------|
A|---------------------------------------------------------------------|
E|---------------------------------------------------------------------|

Sick tune, tell me what u think

cj
Tap to rate this tab
 
# A B C D E F G H I J K L M N O P Q R S T U V W X Y Z