Song name
# A B C D E F G H I J K L M N O P Q R S T U V W X Y Z

Traffic - Great State tab

This is the best band i have ever hear, for their age (only still in highschool)
they are flying infront of other bands.

INTRO
|------------------------------------------------------------|
|------------------------------------------------------------|
|------------------------------------------------------------|
|------------------------------------------------------------|
|------------------------------------------------------------|
|-0-0-0-0-0-0-0-0-3-3-3-3-2-2-2-2-0-0-0-0-0-0-0-0-3-3-3-3-2-2|

|------------------------------------------------------------|
|------------------------------------------------------------|
|------------------------------------------------------------|
|------------------------------------------------------------|
|------------------------------------------------------------|
|-2-2--------------------------------------------------------|

Then, for verses, a little louder than the intro.

|-11-11-11-11-11-11-11-11-14-14-14-14-13-13-13---------------|
|------------------------------------------------------------|
|------------------------------------------------------------|
|------------------------------------------------------------|
|------------------------------------------------------------|
|------------------------------------------------------------|

For the finish, when you do fret 3 and 2 after each other, speed it up.

|------------------------------------------------------------|
|------------------------------------------------------------|
|------------------------------------------------------------|
|------------------------------------------------------------|
|------------------------------------------------------------|
|-0-0-0-0-0-0-0-0-3-3-3-3-2-2-2-2-3-3-2-2-3-3-2-2-3--2--0----|

Let last note ring.

Play this fast and it will sound better.
Tap to rate this tab
# A B C D E F G H I J K L M N O P Q R S T U V W X Y Z