Guitaretab - guitar tabs
Song name
# A B C D E F G H I J K L M N O P Q R S T U V W X Y Z

Tragedie - Je Mise Mes Atouts tab

Title: Je Mise Mes Atouts
Artist: Tragedie
Album: Nouvelle Son


This is a bonus track on french artist Tragedie's album, and one I've been searching for
for for a while, eventually I gave in and tabbed it myself. As far as I'm aware this
is accurate.

Tuning: Standard
Sequence: Intro, then alternate between Riff1 and Riff2


INTRO

E -5-------5-------5---5---5---5X-----|5-7-8-7-5-1-0-1-3---1-0-1-0---------|
B -5-------5-------5---5---5---5X-----|----------------------------3-1-3---|
G -5-------5-------5---5---5---5X-----|------------------------------------|
D ------------------------------------|------------------------------------|
A ------------------------------------|------------------------------------|
E ------------------------------------|------------------------------------|


E 5---5-5--3-3--1-1--0-0--1-3-1-1010--|-5--5-7-8-10---8-7-8-7-3-5--3--585-3|
B 5-----------------------------------|-5--------------------------3-------|
G 5-----------------------------------|-5--------------------------4-------|
D ------------------------------------|------------------------------------|
A ------------------------------------|------------------------------------|
E ------------------------------------|------------------------------------|


E -1---353-1---3---585-3---1---353-1--|
B -1-----------3-----------1----------|
G -2-----------4-----------2----------|
D ------------------------------------|
A ------------------------------------|
E ------------------------------------|


RIFF1
[ Tab from: http://www.guitaretab.com/t/tragedie/102251.html ]
E -5--5--5--5---5--7--8--7--5---------|-5--5--5--5---5--7--8--7--5---------|
B -5--5--5--5------------------6--5---|-5--5--5--5------------------6--5---|
G -5--5--5--5-------------------------|-5--5--5--5-------------------------|
D -7--7--7--7-------------------------|-7--7--7--7-------------------------|
A -7--7--7--7-------------------------|-7--7--7--7-------------------------|
E -5--5--5--5-------------------------|-5--5--5--5-------------------------|


E -5--5--5--5---5--7--8--10---8-------|-7--7--7--7---5--8--5--3--5---------|
B -6--6--6--6-------------------------|-8--8--8--8-------------------------|
G -7--7--7--7-------------------------|-9--9--9--9-------------------------|
D -7--7--7--7-------------------------|-9--9--9--9-------------------------|
A -5--5--5--5-------------------------|-7--7--7--7-------------------------|
E -5--5--5--5-------------------------|-7--7--7--7-------------------------|


RIFF2

E -5--5--5--5-------------------------|-5--5--5--5-------------------------|
B -5--5--5--5-------------------------|-5--5--5--5-------------------------|
G -5--5--5--5-------------------------|-5--5--5--5-------------------------|
D -7--7--7--7-------------------------|-7--7--7--7-------------------------|
A -7--7--7--7-------------------------|-7--7--7--7-------------------------|
E -5--5--5--5-------------------------|-5--5--5--5-------------------------|


E -5--5--5--5-------------------------|-7--7--7--7-------------------------|
B -6--6--6--6-------------------------|-8--8--8--8-------------------------|
G -7--7--7--7-------------------------|-9--9--9--9-------------------------|
D -7--7--7--7-------------------------|-9--9--9--9-------------------------|
A -5--5--5--5-------------------------|-7--7--7--7-------------------------|
E -5--5--5--5-------------------------|-7--7--7--7-------------------------|

Hope you enjoyed! Feedback to user Russyj

FOR THE ATTENTION OF THE MODERATORS: Your forms do not recognise Tragedie, they are a
RnB group, I cannot find their official websiste, however below is a French wikipedia
an amazon entry for their album, and a AMG entry for their album. Hopefully this is 
to prove they are signed.
http://fr.wikipedia.org/wiki/Tragedie
http://www.amazon.com/Tragedie/dp/B0001VQE94
http://www.allmusic.com/cg/amg.dll?p=amg&sql=10:0nfoxqrald6e