Song name
# A B C D E F G H I J K L M N O P Q R S T U V W X Y Z

Tragically Hip - Morning Moon tab

Tabbed By: Andrew Onorati
Date:      Feb 13, 2009


Hello, This is a tab for the intro of the song "Morning Moon" by The Tragically Hip.

The tuning is standard except for the B string. It is tuned down a full step to A.

Like with most songs, it's a little tricky at first, but once you get the timing down, 
sound great! Enjoy!

E|---------------------------------------------------------------------|
A|-----2-------------------------0--0h2---2p0-----------0--------------|
G|----2----2------2------------0---0-----0----0h2-0---0-----0---0------|
D|---2----2------2-----------2----2-----2-----------0-----0----0-------|
A|-0--------0------0--0h2-3---------3-----3----------------------------|
E|------------------------------------------------3----------3----3-2--|

|--------------------------------0---|
|------2---------------------3--3----|
|-----2---2----2------------0--0-----|
|----2---2----2-----------2----------|
|--0-------0----0---0h2-3--------3---|
|------------------------------------|
Tap to rate this tab
# A B C D E F G H I J K L M N O P Q R S T U V W X Y Z