Song name
# A B C D E F G H I J K L M N O P Q R S T U V W X Y Z

Tragically Hip - Boots Or Hearts tab

			Tragically Hip - Boots or Hearts
-------------------------------------------------------------------------------
Tabbed by: Al Gilstorf
Email:	gilstorf@sympatico.ca

Tuning:  Standard
Good chords and lyrics exist for this song on Ultimate Guitar.
One of the contributors asked for the Solo's.
Here's what I think.

Solo after 2nd verse
e|-------5/7-----------------5/7------------------|
B|--6/8--6/8--8p7---8--6/8---6/8--8p7---7-7-8\--5-|
G|--5/7--5/7------7----5/7---5/7------7---------5-|
D|--7/9--7/9-----------7/9---7/9----------------5-|
A|----------------------------------------------3-|
E|------------------------------------------------|

e|--------------------------7(7)--5/7-------------|
B|------------5-------------8(8)--6/8-------------|
G|-5p3---3-3--5--5p3---5-5--7(7)--5/7-------------|
D|-----5------5------5------9(9)--7/9-------------|
A|------------3-----------------------------------|
E|------------------------------------------------|


Solo At End
e|--------5/7-------------------5/7---------------|
B|---6/8- 6/8--6/8--8p7---7-7-8-6/8---------------|
G|---5/7--5/7--5/7------7-------5/7---------------|
D|---7/9--7/9--7/9--------------7/9--9p7----------|
A|---------------------------------------10-8-----|
E|---------------------------------------------7\-|

| /  slide up
| \  slide down
| p  pull-off
|( ) hold note
Tap to rate this tab
# A B C D E F G H I J K L M N O P Q R S T U V W X Y Z