Song name
# A B C D E F G H I J K L M N O P Q R S T U V W X Y Z

Tragically Hip - Love Is A First tab

-------------------------------------------------------------------------------
			     LOVE IS A FIRST - Tragically Hip
-------------------------------------------------------------------------------
Tabbed by: EVAN E
Email: ev007man@hotmail.com

Tuning: Standard
VERSE: repeat a few times

e|-2--0------2--0----------0---------0----------------------|
B|-------2----------2---4------2--4------2------------------|
G|----------------------------------------------------------|
D|----------------------------------------------------------|
A|----------------------------------------------------------|
E|----------------------------------------------------------|
CHORUS:
e|----------------------------------------------------------|
B|----------------------------------------------------------|
G|----------------------------------------------------------|
D|-4-4---4-4/-7-7---7-7/-9-9---9-9/-7-7---7-7\--------------|
A|-4-4---4-4/-7-7---7-7/-9-9---9-9/-7-7---7-7\--------------|
E|-2-2---2-2/-5-5---5-5/-7-7---7-7/-5-5---5-5\--------------|
  BRIDGE:
e|----------------------------------------------------------|
B|----------------------------------------------------------|
G|----------------------------------------------------------|
D|-7-7\-4-4---7-7\-4-4---7-7\-4-----------------------------|
A|-7-7\-4-4---7-7\-4-4---7-7\-4-----------------------------|
E|-5-5\-2-2---5-5\-2-2---5-5\-2-----------------------------|

It goes:
Verse
Chorus
Verse
Chorus
Bridge
Choru


| /  slide up
| \  slide down
| h  hammer-on
| p  pull-off
| ~  vibrato
| +  harmonic
| x  Mute note
===============================================================================
Tap to rate this tab
 
# A B C D E F G H I J K L M N O P Q R S T U V W X Y Z