Song name
# A B C D E F G H I J K L M N O P Q R S T U V W X Y Z

Tragically Hip - Little Bones tab

Tabbed by: Myles Rosenthal
Email: coolmyles101@hotmail.com

(Strumming Not Included)

Intro/2nd Guitar through Verses:

e|-----------------------------------|
B|-----------------------------------|
G|-----------------------------------|
D|----4-4-4-2-2-2-2-2-2-2-2-1-1-1-1--|
A|---4-4-4-4-4-4-4-4-2-2-2-2-2-2-2-2-|
E|-2---------------------------------|

Pre-Verse:

e|---2---2-5-7----------2-----------5-7---------|
B|---2---2-5-7---5-4----2-----------5-7---5-4---|
G|---3---3-6-8--4---4---3-----4-2-4-6-8--4---4--|
D|-2-4-2-4-7-9-4------2-4-4-2-------7-9-4-------|
A|-2-4-2-4-7-9--------2-4-----------7-9---------|
E|---2---2-5-7----------2-----------5-7---------|

Verses: (Not usually played during song, the intro is usually played, these are the 
though)

e|-2--5--7--|
B|-2--5--7--|
G|-3--6--8--|
D|-4--7--9--|
A|-4--7--9--|
E|-2--5--7--|


Bridge:

e|----------2--|
B|----------2--|
G|----------3--|
D|--7-6-4-2-4--|
A|----------4--|
E|----------2--|
Tap to rate this tab
# A B C D E F G H I J K L M N O P Q R S T U V W X Y Z