Song name
# A B C D E F G H I J K L M N O P Q R S T U V W X Y Z

Tragically Hip - 38 Years Old chords

-------------------------------------------------------------------------------
			     38 Years Old - The Tragically Hip
-------------------------------------------------------------------------------
Tabbed by: Adrian Pearson
Email: am_pearson@laurentian.ca

Tuning: Standard (EADGBe)

All the other tabs ive seen for this song have been kinda lame, 
so i made a better one.  Ive tried to depict the strumming pattern  

Intro (0:00 - 0:58)  (repeat x12)
e|-0-00-0--1-1-1p0-0-0----------------------|
B|-1-11-1--1-1-1---1-1--1-111--3-333--1-11--|
G|-2-22-2--2-2-2---2-2--0-000--0-000--0-00--|
D|-2-22-2--2-2-2---2-2--x-xxx--x-xxx--x-xx--|  
A|-0-00-0--0-0-0---0-0--3-333--2-222--2-22--|
E|------------------------------------3-33--| 

(0:59 - 1:25) (repeat x6)
e|---------------------0-00-0-00-0000--|
B|-1-111--3-333--1-11--3-33-3-33-3333--|
G|-0-000--0-000--0-00--2-22-2-22-2222--|
D|-x-xxx--x-xxx--x-xx--0-00-0-00-0000--|
A|-3-333--2-222--2-22--x-xx-x-xx-xxxx--|
E|---------------3-33------------------|

(1:26 - 1:55) (repeat x6)
e|-0-00-0--1-1-1p0-0-0----------------------|
B|-1-11-1--1-1-1---1-1--1-111--3-333--1-11--|
G|-2-22-2--2-2-2---2-2--0-000--0-000--0-00--|
D|-2-22-2--2-2-2---2-2--x-xxx--x-xxx--x-xx--|
A|-0-00-0--0-0-0---0-0--3-333--2-222--2-22--|
E|------------------------------------3-33--| 

On this first D in this next part there is a pull off.  Ive tried to 
show it, but people will still think you're cool if you just play a 
straight D.

(1:55 - 2:14) (repeat x2)
e|-0-00-0-00-0000--2---22-2---22-2222------------------2-22-2-22-2222-|
B|-1-11-1-11-1111--3---33-3---33-3333--1-11-1-11-1111--3-33-3-33-3333-|
G|-2-22-2-22-2222--2p0-00-2p0-00-2222--0-00-0-00-0000--2-22-2-22-2222-|
D|-2-22-2-22-2222--0---00-0---00-0000--2-22-2-22-2222--0-00-0-00-0000-|
A|-0-00-0-00-0000----------------------3-33-3-33-3333-----------------|
E|-------------------------------------3-33-3-33-3333-----------------|

(2:15 - 2:34) (repeat x4)
e|-0-00-0-00-0000-----------------|
B|-1-11-1-11-1111--1-111/3-3-3333-|
G|-2-22-2-22-2222--0-000/0-0-0000-|
D|-2-22-2-22-2222--x-xxx/4-4-4444-|
A|-0-00-0-00-0000--3-333/5-5-5555-|
E|--------------------------------|

(2:35 - 3:03) (repeat x6)
e|-0-00-0--1-1-1p0-0-0----------------------|
B|-1-11-1--1-1-1---1-1--1-111--3-333--1-11--|
G|-2-22-2--2-2-2---2-2--0-000--0-000--0-00--|
D|-2-22-2--2-2-2---2-2--x-xxx--x-xxx--x-xx--|
A|-0-00-0--0-0-0---0-0--3-333--2-222--2-22--|
E|------------------------------------3-33--| 

(3:04 - End)
e|---------------0-00-0-00-0000--|
B|-1-111--3-333--3-33-3-33-3333--|
G|-0-000--0-000--2-22-2-22-2222--|
D|-x-xxx--x-xxx--0-00-0-00-0000--|
A|-3-333--2-222--x-xx-x-xx-xxxx--|
E|-------------------------------|

| /  slide up
| \  slide down
| h  hammer-on
| p  pull-off
| ~  vibrato
| +  harmonic
| x  Mute note

===============================================================================
Tap to rate this tab
# A B C D E F G H I J K L M N O P Q R S T U V W X Y Z