Song name
# A B C D E F G H I J K L M N O P Q R S T U V W X Y Z

Tragically Hip - Killing Time chords

Chords:
A#:x133xx
A:x0222x
C:x3201x
D:x577xx
F:133xxx
G:355xxx

Main riff played throughout:

e------1-------------------------------|
B----3----3---3---------------3--------|
G----2------2---2----0--------2--------|
D----0------------0----0------0--------|
A------------------------0--0----------|
E--------------------------------------|

Riff x 2
I need your confidence, need to know your mine
Riff x 2
When it gets right down to the killing time
Riff x 2
I know your heart is bad, but it's all I've ever had
Riff x 2
We can live our lives on this righteous crime

Dsus2             Em7+5 G    Dsus2                Em7+5   G
I got kicked when I was down and a sailor took my girl to town
Dsus2              Em7+5           G         Dsus2    Em7+5    G
then she licked my wounds with the sea dog's salt
Dsus2            Em7+5     G     Dsus2           Em7+5    G
I drank a half a bottle of jack, swore I'd never take you back
Dsus2           Em7+5     G       Dsus2   Em7+5    G
by the bottle's end I was on that phone.

Em7+5        C          Am
What you call compromise I don't understand
Em7+5        C          Am                  A
What you call compromise I don't under------stand

How do you walk away?
How do you walk away?
How do you walk away from a woman that gone and done you wrong?

CHORDS:

A     -  x02220
Am    -  x02210
C     -  x32010
Dsus2 -  xx0230
Em7+5 -  032030
G     -  320030

Duncan
sports2@genie.com

-----------------------------------------------------------------------------------------
song: Killing Time
artist: The Tragically Hip
album: The Tragically Hip
transcribed by: Jon Makokis
comments & questions: tasty_nothings@hotmail.com

I've seen one tab for this song...and it's quite wrong,
so I'm gonna do this right.

Main riff:

e|-------1p0------------------|
B|--3-3------3-1--------------|
G|--2--2---------2---0--------|
D|--0--------------3---2---0--|
A|-----------------------3----|
E|----------------------------|

Riff x2
I need your confidence, need to know your mine
When it gets right down to the killing time
I know your heart is bad, but it's all I've ever had
We can live our lives on this righteous crime

(Play a freestyle version of the main riff:)
I got kicked when I was down and a sailor took my girl to town
then she licked my wounds with the sea dog's salt
I drank a half a bottle of jack, swore I'd never take you back
by the bottle's end I was on that phone.

A#            C         A
What you call compromise I don't understand
A#            C         A              C
What you call compromise---I don't understand

D                     F  G
How do you walk away?
D                     F  G
How do you walk away?
D                                      F       G
Oh walk away from a woman that gone and done you wrong?

Solo:
For the first part of the solo, use this scale
E --------------------------10-13-|
B ---------------------10-13------|
G ----------------10-12-----------|
D -----------10-12----------------|
A ------10-12---------------------|
E -10-13--------------------------|
The second half is basically riff 2 with a few frills.
Tap to rate this tab
# A B C D E F G H I J K L M N O P Q R S T U V W X Y Z