Song name
# A B C D E F G H I J K L M N O P Q R S T U V W X Y Z

Tragically Hip - Long Time Running chords

Song: Long Time Running
Album: Road Apples
Tabbed By: Steve Proulx (waytoocoolforyou@hotmail.com)

Chords:

A     - X02220
F#m   - 244222
D     - XX0232
Asus2 - X02200
E     - 022100
Dsus2 - XX0230

Riff A:

|--------------------------------0-----------0-----|
|-----------0------------------3---3-------0---0---|
|-----2----------------------2-------0---1-------0-|
|---2-----2-------4-----2--0-----------------------|
|-0-------------4-----2----------------------------|
|-------4-----2-----0------------------0-----------|

Riff B:

|-------0-----------0------------0-----------0-----|
|-----0---0-------0---0--------3---3-------3---3---|
|---1-------1---1-------0----2-------2---2-------0-|
|--------------------------0-----------0-----------|
|--------------------------------------------------|
|-0-----------0------------------------------------|

Intro: Riff A 

A
Does your mother tell you things?
F#m
Long, long when I'm gone?
A
Who you talking to?
F#m
Is she telling you I'm the one?
Riff B
It's a grave mistake and I'm wide awake

Riff A

A
Drive-in's rained out
F#m
Weatherman wet-fingers the sky
A
He pokes it out, he pulls it in
F#m
He don't know why
Riff B
It's the same mistake

            Riff A
It's been a long time running
            Riff A
It's been a long time coming

It's well worth the wait

Solo over A F#m

A
Don't go anywhere
F#m
Just on trips
A
We haven't seen a thing
F#m
Still don't know where it is
Riff B
It's the same mistake

            Riff A
It's been a long time running
            Riff A
It's been a long time coming

      D
Well, well it's the same mistake

A       Asus2 A    D
Dead to rights and wide awake
            A        Asus2   A
Drop a caribou, I'll tell on you,
     D                               F#m  E  Dsus2
I'll tell on you.  I'll tell on you.

A
You've got a boat-load o'nerve
F#m
But I would say you've been told
A
You work me against my friends
F#m
And you'll get left out in the cold
Riff B
It's the same mistake

            Riff A
It's been a long time running
            Riff A
It's been a long time coming
            Riff A
It's been a long, long, long time running
                    Riff A                         A
It's well worth the wait, it's well worth the wait
Posted in Road Apples (1991)
 
| Tagged Road Apples, Steve Proulx

Tap to rate this tab
 
# A B C D E F G H I J K L M N O P Q R S T U V W X Y Z