Song name
# A B C D E F G H I J K L M N O P Q R S T U V W X Y Z

Tragically Hip - Blow At High Dough tab

-----------------------------------------------------------------------------
			     BLOW AT HIGH DOUGH - Tragically Hip
						Yer Favourites Disc 1
-----------------------------------------------------------------------------
Tabbed by: Danny
Email: the_panama_deception@hotmail.com

Tuning: Standard

I thought I would finally give something back to the guitar community
and post this tab up, since i was going to tab it out anyway. just some
notes: I only tabbed the lead guitar part, which is done almost entirely
with a slide. I think there is already an accurate tab for the rhythm,
so i didn't bother. Also, the length of the bars are not ment to be used
for timing, they very in size depending on the notes in the bar.
I'm pretty sure this is correct, although you'll definately have to
listen to the song carefully to understand it and to get a feel of how
the slide is used.


*Intro*
                                                     (dont pick open g)
e|--|-7~~~--|------|-7~~~--|------|----------|-------------|-------|
B|--|-------|------|-------|------|----------|-------------|-------|
G|--|-------|------|-------|------|-2~~~-----|4~~~--4\2-0-2/4~~~---|
D|--|-------|------|-------|------|-------2/4|------------2/4~~~---|
A|--|-------|------|-------|------|----------|-------------|-------|
E|--|-------|------|-------|------|----------|-------------|-------|

                                          >  N S (0:44)*pre-verse x4*<
---------|-----------|-----------|-------|-------||----------------||
--------2/4~~~-------|------5~~--|7~~~---|2~-----||4-4-2-4-4-2-4-2-||
---4\2--2/4~~~------7\6~~~-------|-------|2~-----||4-4-2-4-4-2-4-2-||
---------|-----------|-----------|-------|2~-----||4-4-2-4-4-2-4-2-||
---------|-----------|-----------|-------|0~-----||----------------||
---------|-----------|-----------|-------|-------||----------------||

  *Verse x2* (0:52)                        N S   (bend 1/4 tone)
e|------------------|----------------|-----------------|----------------------|
B|4~------------7---|--------------7/|2~---------------|4~------------7-------|
G|4~------2/4---7--2/4~------2/4---7/|2~-----0-2-0-2b-0|4~------2/4---7---2/4-|
D|4~--2/4-------7--2/4~--2/4-------7/|2~--0h2----------|4~--2/4-------7---2/4-|
A|------------------|----------------|-----------------|----------------------|
E|------------------|----------------|-----------------|----------------------|

    *chorus* (1:23)
e|------------------------|----------------------|--------------------------|
B|---9~-------------------|---9---------10\9~~--/|---11~--------------------|
G|---9~-------------------|---9-9\7-/9------9~--/|---11~--------------------|
D|---9~--------7-9\7-5\---|---9------------------|---11~---------9/11\9-7-\-|
A|-------9\7-7------------|----------------------|--------11\9-9------------|
E|------------------------|----------------------|--------------------------|

    (only pick 11's)
e|------------------------|---------------------|-------------------------|
B|---11-------------------|4---/7-6-5-3---------|2/4--------------------7\|
G|---11-11\9-/11-\9-11~---|4--------------3/4-\-|2/4---/11-10-9-7~-9\7--7\|
D|---11-------------------|4--------------------|-----------------------7\|
A|------------------------|---------------------|-------------------------|
E|------------------------|---------------------|-------------------------|

    *2nd Verse* (1:47)
e|------------------|--------------------------|------------------|
B|4~------------7~--|--------------------------|------------------|
G|4~------2/4---7~--|4~--4-2\4-2\4--6/7-6/7-6/7|6~-----------9---\|
D|4~--2/4-------7~--|----4-2\4-----------------|-------5/7--------|
A|------------------|--------------------------|---5/7------------|
E|------------------|--------------------------|------------------|

e|---------------------||------------------|------------------|
B|4~------------/7-6-/5\|4~------------7\-7\4~-----------4-4\-|
G|4~------2/4----------||4~------2/4---7\-7\4~------2/4~-4-4\-|
D|4~--2/4--------------||4~--2/4-------7\-7\4~--2/4------4-4\-|
A|---------------------||------------------|------------------|
E|---------------------||------------------|------------------|

e|----------------------------|----------------|
B|2~-------------------------2/4~------------7~|
G|2~------2-2~--7\6-7\6--4\2-2/4~------2/4---7~|
D|2~--0-2---2~---------------2/4~--2/4-------7~|
A|----------------------------|----------------|
E|----------------------------|----------------|

   *2nd Chorus* (2:19)
e|------------------------|----------------------|--------------------------|
B|---9~-------------------|---9---------10\9~~--/|---11~--------------------|
G|---9~-------------------|---9-9\7-/9------9~--/|---11~--------------------|
D|---9~--------7-9\7-5\---|---9-----------------/|---11~---------9/11\9-7-\-|
A|-------9\7-7------------|----------------------|--------11\9-9------------|
E|------------------------|----------------------|--------------------------|

                            *breakdown (intro)* (2:35)
e|------------------------|----------|----------|------------|----------------|
B|---11-------------------|4~--------|4~--------|-4~---------2/---------------|
G|---11-11\9-/11-\9-11~---|4~-------2/4~------2-2/4~---4\2-0-2/4~~~-------/7\-|
D|---11-------------------|4~--------|----------2/4~---------2/---------------|
A|------------------------|----------|----------|------------|----------------|
E|------------------------|----------|----------|------------|----------------|

                                       *SOLO*
e|---------|-------|-----------------|----------------------------|-----------|
B|----5~---|7~-----|-7-7-7-7-7-7-7-7-|--7\4--7\--7\--7-x-7\--7-7\-|7\-0-------|
G|6~-------|-------|-----------------|--7\4--7\--7\--7-x-7\--7-7\-|7\---7/9---|
D|---------|-------|-----------------|--7\4--7\--7\--7-x-7\--7-7\-|7\---------|
A|---------|-------|-----------------|----------------------------|-----------|
E|---------|-------|-----------------|----------------------------|-----------|

  ----------------------|------------------------|-------------------------|
  --------------2/4-2/4-|7\--7\--7\---/7-6-5-/3~-|-0-------------/7-6-5-/3-|
  7\-4~----2----2/4-2/4-|7\--7\--7\--------------|------2~--2/4------------|
  -------4\---4\--------|7\--7\--7\--------------|----4---4----------------|
  ----------------------|------------------------|-------------------------|
  ----------------------|------------------------|-------------------------|

          only pick 3's
e|---------------------|--------------------|------------------------------|
B|-2~-2~---3\2/3\2/3\--|-5\-3\-0------0---0-|-7~----------7-7-7-7/10\7~-7-\|
G|---------------------|------------7---7---|-----7\6-6/7------------------|
D|---------------------|--------------------|------------------------------|
A|---------------------|--------------------|------------------------------|
E|---------------------|--------------------|------------------------------|

e|----------------|-----------------------|
B|3\5~---8-8-8-8-8\7~-7~---------------3--|
G|----------------|----------2----2\4-----|
D|----------------|--------4---4----------|
A|----------------|-----------------------|
E|----------------|-----------------------|

   *3rd Chorus* (3:42)
e|------------------------|----------------------|--------------------------|
B|---9~-------------------|---9---------10\9~~--/|---11~--------------------|
G|---9~-------------------|---9-9\7-/9------9~--/|---11~--------------------|
D|---9~--------7-/9\7-5\--|---9------------------|---11~---------9/11\9-7-\-|
A|-------9\7-7------------|----------------------|--------11\9-9------------|
E|------------------------|----------------------|--------------------------|

    (only pick 11's)
e|------------------------|---------------------|---------------------------|
B|---11-------------------|4---/7-6-5-3---------|2/4------------------------|
G|---11-11\9-/11-\9-11~---|4--------------3/4-\-|2/4--/11-10-9-7~-9\7--5/7~-|
D|---11-------------------|4--------------------|---------------------------|
A|------------------------|---------------------|---------------------------|
E|------------------------|---------------------|---------------------------|

    *outro* (4:05)
e|---------------------|-----------------------|------------------|
B|4---/7-6-5-3---------|2/4---/7-6-5-/3-------3|4----------7\4----|
G|4--------------3/4-\-|2/4-------------4\2/4--|4-----2/4--7\4--2/|
D|4--------------------|-----------------------|4---4------7\4----|
A|---------------------|-----------------------|------------------|
E|---------------------|-----------------------|------------------|

e|--------------------------|------------|------------|------------|
B|-----------------/7-6-5-3-|4~---------2/4~---------2/4~----------|
G|4~-----2/4---7~-----------|4~---------2/4~---------2/4~----------|
D|----4---------------------|------------|------------|------------|
A|--------------------------|------------|------------|------------|
E|--------------------------|------------|------------|------------|


************************************

| /   slide up
| \   slide down
| ~   vibrato
| x   Mute note
| b   Bend
|N S  No Slide
Tap to rate this tab
 
# A B C D E F G H I J K L M N O P Q R S T U V W X Y Z