Song name
# A B C D E F G H I J K L M N O P Q R S T U V W X Y Z

Tragically Hip - Long Time Running tab

E--------------------------------0---------------------|
B----------------------------------0----------0-0h2----|
E------------------------------------0--------------0--|
G#------5------4------2------0-------------------------| 
B-----5------4------2------0--------------0------------|
E---5------4------2------0--------------0--------------|

E---------------------------------|   |-0-|----------0-------------------|
B---------------------------------|   |-0-|-----------0----------0-0h2---|
E---------------------------------|   |-0-|------------0--------------0--|
G#--5-X-5-5h7-5----2-2-2p0---0-2--|2x |-0-|-----0------------------------|
B---5-X-5-------5--2-2----2--2-2--|   |-0-|---0--------------0-----------|
E---5-X-5----------2-2-------2-2--|   |-0-|-0--------------0-------------|
Tap to rate this tab
# A B C D E F G H I J K L M N O P Q R S T U V W X Y Z