Tragically Hip - In View chords

Highlighted       Show chord diagrams
-------------------------------------------------------------------------------
			     In View-The Tragically hip 
-------------------------------------------------------------------------------
Tabbed by:Ryan
Email:ryan_hillaby@hotmail.ca

Tuning:Standard

This may not be the exact way the gord downie plays it on acousitc live or how its 
recorded but the chords were picked from the root notes in the song and its sounds 
pretty decent played along with it or just played by yourself or with friends.

Intro   
     E      B7    E    B7
e|-------|--2--|-----|--2--|-------------------------------------------------|
B|-------|--2--|-----|--2--|-------------------------------------------------|
G|---1---|--4--|--1--|--4--|-------------------------------------------------|
D|---2---|--4--|--2--|--4--|-------------------------------------------------|
A|---2---|--2--|--2--|--2--|-------------------------------------------------|
E|---0---|--x--|--0--|--x--|-------------------------------------------------|
Alternate strum each chord for the intro

C#/Dbm      E
I love you. You know I do
B7               E  
Yea, its perfect well, it isnt and it is
E
And Ive been meaning to call you
E
Ive been meaning to call you
       B7 
Then I do
E
Ive been meaning to call you
E
Ive been meaning to call you
       B7
Then I do
E
Phone rings once
B7
Phone rings twice
C#/Dbm             E
Phone rings three times

(During this part of the chorus switch betweem chords to the rythm of the song)

B7 E E B7 B7 E E      E    B7 E E B7 B7 E E
I--------------I,     I am of you           
B7 E E B7 B7 E E             B7   E B7 B7 E E
Youuuuuuuuuu    are in everything I do

(Same part as intro, only played once over "I do"
I do
C#/Dbm       E
I trust you, that makes you true
B7             E
I dont care if it isnt the way it is
E
Ive been meaning to call you
E
Ive been meaning to call you
       B7
Then I do
E
Phone rings once
B7
Phone rings twice
C#/Dbm            E
Phone rings three times

B7 E E B7 B7 E E      E    B7 E E B7 B7 E E
I--------------I,     I am of you       
B7 E E B7 B7 E E           B7 E E B7 B7 E E
Youuuuuuuuuu    are always in view
     B7 E E B7 B7 E E      B7 E E B7 B7 E E
Yea, I------------I   I am my will
B7 E E B7 B7 E E             B7   E B7 B7 E E
Youuuuuuuuuu    are in everything I do



E     E     E
I do. I do. I do
E
In the Day Erasers dark of night
E
In the Excited States, gone in plain sight
E
Under the wave or by cavelight
E                                        B7
I lose, things change, but never in your eyes

B7 E E B7 B7 E E      E    B7 E E B7 B7 E E
I--------------I,     I am of you       
B7 E E B7 B7 E E           B7 E E B7 B7 E E
Youuuuuuuuuu    are always in view
     B7 E E B7 B7 E E      B7 E E B7 B7 E E
Yea, I------------I   I am my will
B7 E E B7 B7 E E             B7   E B7 B7 E E
Youuuuuuuuuu    are in everything I do

Tap to rate this tab
 
# A B C D E F G H I J K L M N O P Q R S T U V W X Y Z