Song name
# A B C D E F G H I J K L M N O P Q R S T U V W X Y Z

Tragically Hip - New Orleans Is Sinking tab

Help us improve GuitareTab! Take a short survey!
Other versions are good but this way is easiest and
best sounding!

Things used in song

h - Hammer 
x - Scratch 
p - Pulloff
bp - Bend Then Pulloff
s - Slide

E|----------------------------| (Play 4x)
B|----------------------------|
G|----------------------------|
D|--------2-----------0--0h2--|
A|-----------2-----2----------|
E|--0--0--------3-------------|


E|----------------------------| (Play 2x) 
B|----------------------------|
G|------2-------0-0h2---------|
D|--------2---2---------------|
A|-0--0-----3-----------------|
E|----------------------------|


E|----------------------------| (Play 2x) 
B|----------------------------|
G|----------------------------|
D|--------2-----------0--0h2--|
A|-----------2-----2----------|
E|--0--0--------3-------------|


E|------------------------------------------------------|  
B|------------------------------------------------------|
G|----------------x--2-x-2-x-2-x-2----------------------|
D|-4-x-4-x-4-x-4--x--2-x-2-x-2-x-2---(-0-0-0-0-VERY FAST)
A|-2-x-2-x-2-x-2--x--0-x-0-x-0-x-0---(-0-0-0-0----------)
E|------------------------------------------------------|

E|----------------------------| 
B|----------------------------|
G|----------------------------|
D|--------2-----------0--0h2--|
A|-----------2-----2----------|
E|--0--0--------3-------------|

Thats all for the rythm guitar now for the fun stuff!

E|-------------------------------------------|
B|--3p0--0--5--0--3p0------------------------|
G|---------------------4p0---2-2p0-----------|
D|----------------------------------2p0------|
A|-------------------------------------------|
E|-------------------------------------------|


E|-------------------------------------------|
B|--3p0--0--5--0--3p0------------------------|
G|---------------------4p0---2-2p0-----------|
D|----------------------------------2bp0-----|
A|-------------------------------------------|
E|-------------------------------------------|

E|--------------------------------------------------------0----|
B|--3p0--0--5--0--3p0------------------------------------------|
G|---------------------4p0---2-2p0-------3p2p0-----2-2s4--4----|
D|----------------------------------2p0--------2-0-------------|
A|-------------------------------------------------------------|
E|-------------------------------------------------------------|

E|-------------------------------------------|
B|--3p0--0--5--0--3p0------------------------|
G|---------------------4p0---2-2p0-----------|
D|----------------------------------2p0------|
A|-------------------------------------------|
E|-------------------------------------------|

E|-------------------------------------------|
B|--3p0--0--5--0--3p0------------------------|
G|---------------------4p0---2-2p0-----------|
D|----------------------------------2bp0-----|
A|-------------------------------------------|
E|-------------------------------------------|

E|--------------------------------------------------------0----|
B|--3p0--0--5--0--3p0------------------------------------------|
G|---------------------4p0---2-2p0-------3p2p0-----2-2s4--4----|
D|----------------------------------2p0--------2-0-------------|
A|-------------------------------------------------------------|
E|-------------------------------------------------------------|





All Done, Man that takes alot out of ya!


Related for New Orleans Is Sinking tab