Song name
# A B C D E F G H I J K L M N O P Q R S T U V W X Y Z

Tragically Hip - Scared tab

This is my first attempt at a tab.  Hope it makes sense.
Tabbed by Jim.

stealedswheels@hotmail.com




Intro and Verse goes like this.


e|----2------------3------2---------------------------------------------|
B|--- 3------------3------3---------------------------------------------|
G|--2-2---2--------0------2---------------------------------------------|
D|-0------0--------0----------------------------------------------------|
A|-----4---4--0----2----------------------------------------------------|
E|-----------------3----------------------------------------------------|
I can make you scared.....




e|-------------------------------------------------------------------------2-|
B|-------------------------------------------------------------------------3-|
G|--------------------------------------------------------------------0----2-|
D|---0--4--2-0--------------2-------------0---4---2---0---------------0------|
A|-0----------2---0-------0------------0-----------------2----0----2---------|
E|---------------------3-------------------------------------------3---------|

You're in Russia....




e|----0---3-----0-------2---------3---------2-------------------------------|
B|----2---3-----2-------2---------3---------3-------------------------------|
G|----2---0-----2-------2---------0---------2-------------------------------|
D|----2---0-----2-------2---------0---------0-------------------------------|
A|----0---2-----0-------0---------2-----------------------------------------|
E|--------3-----------------------3-----------------------------------------|

There's a Focus Group......






| /   slide up
| \   slide down
| h   hammer-on
| p   pull-off
| ~   vibrato
| +   harmonic
| x   Mute note
| b   Bend
| pb  Pre-bend
| br  Bend release
| pbr Pre-bend release
| brb Bend release bend
Tap to rate this tab
# A B C D E F G H I J K L M N O P Q R S T U V W X Y Z