Song name
# A B C D E F G H I J K L M N O P Q R S T U V W X Y Z

Tragically Hip - Its A Good Life If You Dont Weaken tab

---------------------------------------------------------------------
      The Tragically Hip- It’s a Good Life if You Don’t Weaken
---------------------------------------------------------------------
Tabbed by: Mikeoman
Email: hockeyfan3453@hotmail.com

Tuning: Standard

This is my first tab. The only other actual tab for this I could find on the internet 
that great, so heres a better version.

Sorry I took so long to resubmit it with the Gtr.I part.


INTRO:
Gtr.I
e|--------------------------------------------------------------------|
B|----------0-----------0-----------------------------0---------------|
G|------1h3---3p1---1h3---3p1----1---------------1h3-----3p1-----1h3--|
D|----------------4------------4------------------------------4-------|
A|--------------------------------------------------------------------|
E|--------------------------------------------------------------------|

Gtr.II
e|--------------------------------------------------------------------|
B|--------------------------------------------------------------------|
G|--------------------------------------------------------------------|
D|--------------------------------------------------------------------|
A|--------------------------------------------------------------------|
E|--------------------------------------------------------------------|

Gtr.I
e|--------------------------------------------------------------------|
B|---0---------------------0-----------0------------------0-----------|
G|-----3p1-----1-------1h3---3p1---1h3---3p1---1------1h3---3p1—-1h3--|
D|----------4--------------------4-----------4------------------4-----|
A|--------------------------------------------------------------------|
E|--------------------------------------------------------------------|

Gtr.II
e|------------------------------------------------------4-------------|
B|------------------------------------------4-------4-----------------|
G|--------------------------------------------------------------------|
D|--------------------------------------------------------------------|
A|--------------------------------------------------------------------|
E|--------------------------------------------------------------------|

Gtr.I
e|--------------------------------------------------------------------|
B|-0----------------------0-----------0-------------------------------|
G|---3p1---1---------1h3----3p1---1h3---3p1----1--------------1h3-----|
D|-------4----------------------4------------4------------------------|
A|--------------------------------------------------------------------|
E|--------------------------------------------------------------------|


Gtr.II
e|-----------------------4--------------------------------------------|
B|----------4---4-----------4-------------------------------5-----7---|
G|--------------------------------------------------------------------|
D|--------------------------------------------------------------------|
A|--------------------------------------------------------------------|
E|--------------------------------------------------------------------|

Gtr.I
e|--------------------------------------------------------------------|
B|---0-------------0---------------------------0---------------0------|
G|------3p1----1h3---3p1----1-------------1h3-----3p1-----1h3----3p1--|
D|-----------4-----------4-----------------------------4--------------|
A|--------------------------------------------------------------------|
E|--------------------------------------------------------------------|


Gtr.II
e|-------------------------------------------4------------------------|
B|-----------------7------4-------------------------4-------4---4-----|
G|--------------------------------------------------------------------|
D|--------------------------------------------------------------------|
A|--------------------------------------------------------------------|
E|--------------------------------------------------------------------|

Gtr.I
e|--------------------------------------------------------------------|
B|------------------0--------------0-------------------------0--------|
G|------1------1h3----3p1-----1h3-----3p1-------1------1h3------3p1---|
D|---4---------------------4----------------4-------------------------|
A|--------------------------------------------------------------------|
E|--------------------------------------------------------------------|

Gtr.II
e|-----------------------------------4--------------------------------|
B|--------7----------5---5------4-----------4------4------------------|
G|--------------------------------------------------------------------|
D|--------------------------------------------------------------------|
A|--------------------------------------------------------------------|
E|--------------------------------------------------------------------|

VERSE:

When the colour of the night

Gtr.I
e|--------------------------------------------------------------------|
B|-----------0---------------------0----------------0-----------------|
G|-------1h3---3p1----1-------1h3-----3p1------1h3-----3p1-----1------|
D|----4------------4------------------------4---------------4---------|
A|--------------------------------------------------------------------|
E|--------------------------------------------------------------------|


Gtr.II

e|--------------------4--------------------4--------------------------|
B|-----------------------4--------------------------------------------|
G|--------------------------------------------------------------------|
D|--------------------------------------------------------------------|
A|--------------------------------------------------------------------|
E|--------------------------------------------------------------------|

               and all the smoke for one life

Gtr.I
e|--------------------------------------------------------------------|
B|-----0-------------0----------------------------0-------------------|
G|-1h3----3p1----1h3---3p1-----1-------------1h3-----3p1-------1h3----|
D|-------------4------------4------------------------------4----------|
A|--------------------------------------------------------------------|
E|--------------------------------------------------------------------|


Gtr.II
e|-----------------------4--------------------------------------------|
B|--------4--------4--------------4-------5---------------------5-----|
G|--------------------------------------------------------------------|
D|--------------------------------------------------------------------|
A|--------------------------------------------------------------------|
E|--------------------------------------------------------------------|
                                       gives way to shakey movements
Gtr.I
e|--------------------------------------------------------------------|
B|--0--------------------------0---------------0----------------------|
G|-----3p1-------1--------1h3----3p1------1h3-----3p1-----1----1h3----|
D|-----------4------------------------4----------------4--------------|
A|--------------------------------------------------------------------|
E|--------------------------------------------------------------------|


Gtr.II
e|----------------4---------------------------------------------------|
B|-----7----------5---------------------------------------------------|
G|----------------6-------------------------------------4-------------|
D|---------------------------------------6------------------------4---|
A|--------------------------------------------------------------------|
E|--------------------------------------------------------------------|


          improvisational skills,               a forest of whispering

Gtr.I
e|--------------------------------------------------------------------|
B|--0--------------0---------------------0---------------0------------|
G|----3p1-----1h3-----3p1------1---1h3------3p1-----1h3-----3p1-------|
D|---------4---------------4---------------------4---------------4----|
A|--------------------------------------------------------------------|
E|--------------------------------------------------------------------|


Gtr.II
e|--------------------------------------------------------------------|
B|------------------------------5-------------------------------------|
G|---------------------4--6-----6-----------------4-------------------|
D|-------4----------------------6--------------------6----------------|
A|--------------------------------------------------------------------|
E|--------------------------------------------------------------------|

speakers,          lets swear that we will

Gtr.I
e|--------------------------------------------------------------------|
B|-------------0-------------0-----------------------0----------------|
G|--1-----1h3----3p1----1h3----3p1-----1--------1h3-----3p1-----1h3---|
D|-------------------4--------------4------------------------4--------|
A|--------------------------------------------------------------------|
E|--------------------------------------------------------------------|


Gtr.II
e|--------------------------------------------------------------------|
B|--------------------------------------------------------------------|
G|----------------------4-----------4---------------------------------|
D|--7----------------4--------------6---------------------------------|
A|----------------------------------6---------------------------------|
E|--------------------------------------------------------------------|


       get with the times             in a current health to stay

Gtr.I
e|--------------------------------------------------------------------|
B|--------0----------------------0-------------0----------------------|
G|------------3p1------1-----1h3---3p1----1h3-----3p1------1----------|
D|------------------4-------------------4---------------4-------------|
A|--------------------------------------------------------------------|
E|--------------------------------------------------------------------|


Gtr.II
e|--------------------------------------------------------------------|
B|---4---------------5-------------------------------5----------------|
G|-------------------4-------------------------------4-------4--------|
D|-------------------6-------------------------------6-------6--------|
A|-----------------------------------------------------------6--------|
E|--------------------------------------------------------------------|

               let's get friendship right                get life

Gtr.I
e|--------------------------------------------------------------------|
B|------0---------------0--------------------------0-------------0----|
G|-1h3----3p1------1h3----3p1-------1----------1h3---3p1----1h3-------|
D|--------------4---------------4-------------------------4-----------|
A|--------------------------------------------------------------------|
E|--------------------------------------------------------------------|


Gtr.II
e|--------------------------------------------------------------------|
B|-------------4----------------------5-------------------------------|
G|------------------------------------4-------------------------------|
D|------------------------------------6-------------------------------|
A|--------------------------------------------------------------------|
E|--------------------------------------------------------------------|

   day-to-day              in the forget-yer-skates dream

Gtr.I
e|--------------------------------------------------------------------|
B|---------------------0----------------0-----------------------0-----|
G|-3p1-----1-------1h3---3p1------1h3------3p1--------1----1h3----3p1-|
D|------4----------------------4-----------------4--------------------|
A|--------------------------------------------------------------------|
E|--------------------------------------------------------------------|


Gtr.II
e|--------------------------------------------------------------------|
B|--5----------5------------------------------------------------------|
G|--4----------6---------------------------------4------4-------------|
D|--6----------6-----------------------------4----------6-------------|
A|--------------------------------------------------------------------|
E|--------------------------------------------------------------------|

full of countervailing woes         in diverse as ever scenes

Gtr.I
e|--------------------------------------------------------2------2----|
B|----------0-----------4----------------------4-----4----2------2----|
G|------1h3----3p1------4----------------------4-----4----3------3----|
D|--4---------------4---4----------------------4-----4----4------4----|
A|----------------------2----------------------2-----2----4------4----|
E|--------------------------------------------------------2------2----|


Gtr.II
e|--------------------------------------------------------------------|
B|----------------------------------4-------------------4-------------|
G|---------------------------4------4-------------------4-------------|
D|------------------------6---------4-------------------4-------4-----|
A|----------------------------------2-------------------2-------4-----|
E|--------------------------------------------------------------2-----|

    proceeding on a need-to-know     in a face so full of meaning

Gtr.I
e|---2---2--2--2--2--2--2---------------------------------------------|
B|---2---2--2--2--2--2--2---------------------------------------------|
G|---3---3--3--3--3--3--3---------------------------------------------|
D|---4---4--4--4--4--4--4----2---------------------4----4----2--------|
A|---4---4--4--4--4--4--4----2---------------------4----4----2--------|
E|---2---2--2--2--2--2--2----0---------------------2----2----0--------|


Gtr.II
e|--------------------------------------------------------------------|
B|--------------------------------------------------------------------|
G|--------------------------------------------------------------------|
D|--------------------4--4---2---------------------4----4----2--------|
A|--------------------4--4---2---------------------4----4----2--------|
E|--------------------2--2---0---------------------2----2----0--------|


  as to almost make it glow

Gtr.I
e|------------------------------------------0-------------------------|
B|------------------------------------------0-------------------------|
G|--------------------------------------------------------------------|
D|--------------4----4--2---------------------------------------------|
A|--------------4----4--2---------------------------------------------|
E|--------------2----2--0---------------------------------------------|


Gtr.II
e|--------------------------------------------------------------------|
B|--------------------------------------------------------------------|
G|--------------------------------------------------------------------|
D|---------------4----4--2--------------------------------------------|
A|---------------4----4--2--------------------------------------------|
E|---------------2----2--0--------------------------------------------|

  O' for a good life, we just might have to weaken

Gtr.I
e|--------------------------------------------------------------------|
B|--------------------------------------------------------------------|
G|--------------------------------------------------------------------|
D|-------------------------4----4----2--------------------------------|
A|-------------------------4----4----2--------------------------------|
E|-------------------------2----2----0--------------------------------|


Gtr.II
e|--------------------------------------------------------------------|
B|--------------------------------------------------------------------|
G|--------------------------------------------------------------------|
D|-------------------------4----4----2--------------------------------|
A|-------------------------4----4----2--------------------------------|
E|-------------------------2----2----0--------------------------------|

CHORUS:

and find somewhere to go

Gtr.I
e|----------------------------------------------------------7-----7---|
B|----------------------------------------------------------7-----7---|
G|----------------------8-------8-----8-----8---------------8-----8---|
D|-------------2--------9-------9-----9-----9---------------9-----9---|
A|-------------2--------9-------9-----9-----9----9----9-----9-----9---|
E|-------------0--------7-------7-----7-----7----7----7-----7-----7---|


Gtr.II
e|--------------------------------------------------------------------|
B|---------------------------------4-------4--------------7-----------|
G|---------------------------------4-------4--------------------------|
D|---------------------------------4-------4--------------------------|
A|---------------------------------2--2----2--------------------------|
E|--------------------------------------------------------------------|

go somewhere we’re needed              find somewhere to grow

Gtr.I
e|-------------------------------------0--0---------------------------|
B|-------------------------------------0--0---------------------------|
G|------------------1---1---1--1-------1--1--------------8----8--8--8-|
D|------------------2---2---2--2-------2--2--------------9----9--9--9-|
A|------------------2---2---2--2---2-2-2--2--------------9----9--9--9-|
E|------------------0---0---0--0---0-0-0--0--------------7----7--7--7-|


Gtr.II
e|--------------------------------------------------------------------|
B|------7-----------------------------7-------------------------------|
G|--------------------------------9------9--9-------------------------|
D|----------------------------9---------------------9-----------------|
A|--------------------------------------------------------------------|
E|--------------------------------------------------------------------|

           grow somewhere we’re needed

Gtr.I
e|---------7--7--------------------------------—---------------0---0--|
B|---------7--7------------------------------------------------0---0--|
G|---------8--8-------------------1----1----1----1-------------1---1--|
D|---------9--9-------------------2----2----2----2-------------2---2--|
A|-9--9----9--9-------------------2----2----2----2----2---2----2---2--|
E|-7--7----7--7-------------------0----0----0----0----0---0----0---0--|


Gtr.II
e|--------------------------------------------------------------------|
B|--------------7--------------------7------7------7-------7----------|
G|--------------------------------9-----9-----------------------------|
D|--------------------------------------------------------------------|
A|--------------------------------------------------------------------|
E|--------------------------------------------------------------------|

Gtr.I
e|--------------------------------------------------------------------|
B|-------0----------------0------------------------0------------------|
G|--1h3-----3p1-----1h3------3p1------1-------1h3-----3p1-------1h3---|
D|---------------4---------------4--------------------------4---------|
A|--------------------------------------------------------------------|
E|--------------------------------------------------------------------|


Gtr.II
e|--------------------------------------------------------------------|
B|--------------------------------------------------------------------|
G|----------------4--------4---------3--------------------------------|
D|--------------------------------------------------------------------|
A|--------------------------------------------------------------------|
E|--------------------------------------------------------------------|

Gtr.I
e|--------------------------------------------------------------------|
B|---0--------------------0----------------0--------------------------|
G|------3p1-----1----1h3-----3p1-----1h3------3p1--------1------------|
D|-----------4--------------------4-----------------4-----------------|
A|--------------------------------------------------------------------|
E|--------------------------------------------------------------------|


Gtr.II
e|--------------------------------------------------------------------|
B|----------4------4--------------------------------------------------|
G|-----6-------------------------4------4-----3----3------------------|
D|-------------------------------------------------------6------------|
A|--------------------------------------------------------------------|
E|--------------------------------------------------------------------|

Gtr.I
e|--------------------------------------------------------------------|
B|----------0-----------------0------------------------------0--------|
G|----1h3------3p1------1h3------3p1-----1------------—-1h3-----3p1---|
D|-------------------4----------------4-------------------------------|
A|--------------------------------------------------------------------|
E|--------------------------------------------------------------------|


Gtr.II
e|--------------------------------------------------------------------|
B|--------------------------------------------------------------------|
G|---------------4--------6---------6---------------------------------|
D|--------------------------------------------------------------------|
A|--------------------------------------------------------------------|
E|--------------------------------------------------------------------|

VERSE:

       when the color of the night

Gtr.I
e|--------------------------------------------------------------------|
B|------------0-----------------------0--------------0----------------|
G|------1h3------3p1------1------1h3----3p1-----1h3-----3p1-----1-----|
D|---4----------------4----------------------4---------------4--------|
A|--------------------------------------------------------------------|
E|--------------------------------------------------------------------|

Gtr.II
e|--------------------------------------------------------------------|
B|--------------------------------------------------------5-----------|
G|----------------------4---------------------------------4-----4-----|
D|----------------------6---------2-----------------------6-----6-----|
A|----------------------6---------2-----------------------------6-----|
E|--------------------------------0-----------------------------------|

             and all the smoke in one life

Gtr.I
e|--------------------------------------------------------------------|
B|------0---------------0--------------------------0------------------|
G|-1h3----3p1------1h3-----3p1------1--------1h3------3p1------1h3----|
D|--------------4---------------4---------------------------4---------|
A|--------------------------------------------------------------------|
E|--------------------------------------------------------------------|

Gtr.II
e|--------------------------------------------------------------------|
B|--------------------------------------------------------------------|
G|------------------------------4-------------------------------------|
D|------------------------------6-------2-----------------------------|
A|------------------------------6-------2-----------------------------|
E|--------------------------------------0-----------------------------|

                                 gives way to shakey movements,
Gtr.I
e|--------------------------------------------------------------------|
B|----0-------------------0----------------0--------------------------|
G|------3p1----------1h3-----3p1------1h3-----3p1-------1-------------|
D|------------4--------------------4----------------4-----------------|
A|--------------------------------------------------------------------|
E|--------------------------------------------------------------------|

Gtr.II
e|--------------------------------------------------------------------|
B|----5-------5-----------------------------5-------------------------|
G|----4-------6-----------------------------6-------------------------|
D|----6-------6-----------------------------6------------4------------|
A|-------------------------------------------------------4------------|
E|-------------------------------------------------------2------------|

              improvisational skills              in the forest of

Gtr.I
e|--------------------------------------------------------------------|
B|------0-------------0--------------------0----------------0---------|
G|-1h3----3p1----1h3-----3p1-----1----1h3-----3p1------1h3------------|
D|-------------4--------------4---------------------4-----------------|
A|--------------------------------------------------------------------|
E|--------------------------------------------------------------------|

Gtr.II
e|--------------------------------------------------------------4-----|
B|------------------------------5-------------------------------------|
G|-------------------3----------6-------------------------------------|
D|-------------------4----6-----6-------------------------------------|
A|-------------------4----6-------------------------------------------|
E|--------------------------------------------------------------------|

     whispering speakers             let's swear that we will

Gtr.I
e|--------------------------------------------------------------------|
B|------------------------------0--------------0----------------------|
G|----3p1-------1----------1h3----3p1-----1h3-----3p1-----1-----------|
D|----------4--------------------------4---------------4--------------|
A|--------------------------------------------------------------------|
E|--------------------------------------------------------------------|

Gtr.II
e|--------------------------------------------------------------------|
B|------------------------------------0-------------------------------|
G|---------6--------------------1------------------1----------4-------|
D|-------------------6----------2------------------2----------6-------|
A|------------------------------2------------------2----------6-------|
E|-------------------------0---------------------------0--------------|

                       get with the times               in a current

Gtr.I
e|--------------------------------------------------------------------|
B|-------0---------------0----------------------0---------------------|
G|--1h3-----3p1----1h3------3p1-------1----1h3-----3p1------1h3-------|
D|---------------4----------------4----------------------4------------|
A|--------------------------------------------------------------------|
E|--------------------------------------------------------------------|

Gtr.II
e|------4---------------4--------------------------------------0------|
B|---4-----4------4---------------------------------------------------|
G|-------------------------------------1------------------------------|
D|-------------------------------------2------------------------------|
A|-------------------------------------2------------------------------|
E|-------------------------------------0------------------------------|
     health to stay             and lets get friendship right

Gtr.I
e|--------------------------------------------------------------------|
B|-0-----------------------0---------------0--------------------------|
G|----3p1------1------1h3----3p1-----1h3------3p1------1--------------|
D|---------4----------------------4-----------------4-----------------|
A|--------------------------------------------------------------------|
E|--------------------------------------------------------------------|

Gtr.II
e|------0--------------------------4----------------------------------|
B|-------------------------------------4--------4---------------------|
G|---------------4----------------------------------------1-----------|
D|---------------6----------------------------------------2-----------|
A|---------------6----------------------------------------2-----------|
E|--------------------------------------------------------0-----------|

             get life day-to-day           in the forget-yer-skates

Gtr.I
e|--------------------------------------------------------------------|
B|-----0-------------0-------------------0---------------0------------|
G|-1h3---3p1----1h3----3p1-----1—---1h3----1p1------1h3-----3p1-------|
D|------------4-------------4--------------------4--------------4-----|
A|--------------------------------------------------------------------|
E|--------------------------------------------------------------------|

Gtr.II
e|--------------------------------------------------------------------|
B|-------------------5-------------------------------5----------------|
G|-------------------4-------6-------------------6--------------------|
D|-------------------6-------6----------------------------------------|
A|--------------------------------------------------------------------|
E|--------------------------------------------------------------------|

    dream         full of countervailing woes               in diverse

Gtr.I
e|--------------------------------------------------------------------|
B|--------------0--------------0---------------------4----------------|
G|---1-----1h3-----3p1----1h3-----3p1-----1-----1h3-----3p1----1h3----|
D|----------------------4--------------4---------------------4--------|
A|--------------------------------------------------------------------|
E|--------------------------------------------------------------------|

Gtr.II
e|-----------------4--------------------------------------------------|
B|--------------------------5--------------4------4-------------------|
G|---1-------------------------------------4------4-------------------|
D|---2-------------------------------------4------4-------------------|
A|---2-------------------------------------2------2-------------------|
E|---0----------------------------------------------------------------|

   as ever scenes                  proceeding on a need-to-know

Gtr.I
e|--------------------------------------------------------------------|
B|---0--------------------0-------------0-----------------------------|
G|-----3p1-----1------1h3---3p1----1h3-----3p1------------------------|
D|----------4--------------------4--------------------------2---------|
A|----------------------------------------------------------2---------|
E|----------------------------------------------------------0---------|

Gtr.II
e|--------------------------------------------------------------------|
B|--------------------------------------------------------------------|
G|-----------3---------3----------------------------------------------|
D|-----------4---------4-----------------------------4---4--2---------|
A|-----------4---------4-----------------------------4---4--2---------|
E|-----------2---------2-----------------------------2---2--0---------|

   in a face so full of meaning     as to almost make it glow

Gtr.I
e|--------------------------------------------------------------------|
B|--------------------------------------------------------------------|
G|--------------------------------------------------------------------|
D|---------------4----4---2-----------------------4----4----2---------|
A|---------------4----4---2-----------------------4----4----2---------|
E|---------------2----2---0-----------------------2----2----0---------|

Gtr.II
e|--------------------------------------------------------------------|
B|--------------------------------------------------------------------|
G|--------------------------------------------------------------------|
D|---------------4----4---2-----------------------4----4----2---------|
A|---------------4----4---2-----------------------4----4----2---------|
E|---------------2----2---0-----------------------2----2----0---------|

         oh for a good life we just might have to weaken

Gtr.I
e|--------------------------------------------------------------------|
B|--------------------------------------------------------------------|
G|--------------------------------------------------------------------|
D|-------------------------------4----4-----2-------------------------|
A|-------------------------------4----4-----2-------------------------|
E|-------------------------------2----2-----0-------------------------|

Gtr.II
e|--------------------------------------------------------------------|
B|--------------------------------------------------------------------|
G|--------------------------------------------------------------------|
D|-------------------------------4----4-----2-------------------------|
A|-------------------------------4----4-----2-------------------------|
E|-------------------------------2----2-----0-------------------------|

CHORUS:

and find somewhere to go          go somewhere we’re needed

Gtr.I
e|----------------------------------------7---7-----------------------|
B|----------------------------------------7---7-----------------------|
G|--------------------8---8----8-8--------8---8---------1-----1-------|
D|--------------------9---9----9-9--------9---9---------2-----2-------|
A|--------------------9---9----9-9--9--9--9---9---------2-----2-------|
E|--------------------7---7----7-7--7--7--7---7---------0-----0-------|

Gtr.II
e|--------------------------------------------------------------------|
B|--------------------4---4----4-4----4----4--------------------------|
G|------------4-------4---4----4-4----4----4------------1-----1-------|
D|---4--4-----4-------4---4----4-4----4----4------------2-----2-------|
A|---4--4-----2-------2---2----2-2-2--2----2--2---------2-----2-------|
E|---2--2-----------------------------------------------0-----0-------|

                    find somewhere to grow

Gtr.I
e|------------------0---0---------------------------------------------|
B|------------------0---0---------------------------------------------|
G|---1---1----------1---1--------------8------8-----8----8------------|
D|---2---2----------2---2--------------9------9-----9----9------------|
A|---2---2---2--2---2---2--------------9------9-----9----9----9----9--|
E|---0---0---0--0---0---0--------------7------7-----7----7----7----7--|

Gtr.II
e|--------------------------------------------------------------------|
B|-------------------------------------4------4-----4-----------------|
G|---1---1----------1---1--------------4------4-----4-----------------|
D|---2---2----------2---2--------------4------4-----4-----------------|
A|---2---2----2-----2---2--------2-----2------2-----2----2------------|
E|---0---0----------0---0---------------------------------------------|

(grow somewhere we’re needed)                 find somewhere to go


Gtr.I
e|---7-----7----------------------------------------0--0--------------|
B|---7-----7----------------------------------------0--0--------------|
G|---8-----8-------------1-----1----1-----1---------1--1--------8-----|
D|---9-----9-------------2-----2----2-----2---------2--2--------9-----|
A|---9-----9-------------2-----2----2-----2---2--2--2--2--------9-----|
E|---7-----7-------------0-----0----0-----0---0--0--0--0--------7-----|

Gtr.II
e|--------------------------------------------------------------------|
B|---4-----4----------------------------------------------------4-----|
G|---4-----4-------------1-----1----1-----1------1--1-----------4-----|
D|---4-----4-------------2-----2----2-----2------2--2-----------4-----|
A|---2-----2-----2-------2-----2----2-----2------2--2-----------2-----|
E|-----------------------0-----0----0-----0---0--0--0--0--------------|

                     lets go somewhere we’re needed

Gtr.I
e|-----------------------7----7---------------------------------------|
B|-----------------------7----7---------------------------------------|
G|--8----8--8------------8----8----------------1-----1-----1----1-----|
D|--9----9--9------------9----9----------------2-----2-----2----2-----|
A|--9----9--9---9---9----9----9----------------2-----2-----2----2-----|
E|--7----7--7---7---7----7----7----------------0-----0-----0----0-----|

Gtr.II


e|--------------------------------------------------------------------|
B|--4----4--4-------4----4----4---------------------------------------|
G|--4----4--4-------4----4----4----------------1-----1-----1----1-----|
D|--4----4--4-------4----4----4----------------2-----2-----2----2-----|
A|--2----2--2---2---2----2----2-----2----------2-----2-----2----2-----|
E|---------------------------------------------0-----0-----0----0-----|
find somewhere to grow                  grow where we are needed

Gtr.I
e|--------0--0-------------------------------7------7-----------------|
B|--------0--0-------------------------------7------7-----------------|
G|--------1--1--------8---8---8--8-----------8------8---------1-------|
D|--------2--2--------9---9---9--9-----------9------9---------2-------|
A|--2-2---2--2--------9---9---9--9---9---9---9------9---------2-------|
E|--0-0---0--0--------7---7---7--7---7---7---7------7---------0-------|

Gtr.II
e|--------------------------------------------------------------------|
B|--------------------4---4---4--4-------4---4------------------------|
G|-----1--1-----------4---4---4--4-------4---4----------------1-------|
D|-----2--2-----------4---4---4--4-------4---4----------------2-------|
A|-----2--2-----------2---2---2--2---2---2---2------2---------2-------|
E|---0-0--0---0-----------------------------------------------0-------|

Gtr.I
e|----------------------0-----0---------------------------------------|
B|----------------------0-----0---------------------------------------|
G|--1---1--1------------1-----1---------------------------------------|
D|--2---2--2------------2-----2---------------------------------------|
A|--2---2--2---2---2----2-----2---------------------------------------|
E|--0---0--0---0---0----0-----0---------------------------------------|

Gtr.II
e|------------------------------------------------4----4--------------|
B|------------------------------------------------5----5--------------|
G|---1----------------------------------------------------------------|
D|---2----------------------------------------------------------------|
A|---2----------------------------------------------------------------|
E|---0----------------------------------------------------------------|

ENDING:

              cause in the forget-yer-skates dream

Gtr.I
e|--------------------------------------------------------------------|
B|---------0-----------------0-----------------------------0----------|
G|----1h3-----3p1-------1h3-----3p1--------1----------1h3-----3p1-----|
D|------------------4-----------------4-------------------------------|
A|--------------------------------------------------------------------|
E|--------------------------------------------------------------------|

Gtr.II
e|--------------------------------------------------------------------|
B|-----5---------5----------------------------------------------------|
G|-----6---------6----------6------4-----4-----3----------3-----------|
D|-----6---------6----------6------4-----4-----4----------4-----------|
A|---------------------------------------------4----------4-----------|
E|---------------------------------------------2----------2-----------|

   you can hang your head in woe          in those diverse as ever

Gtr.I
e|--------------------------------------------------------------------|
B|-----------0--------------------------4-----------------0-----------|
G|-----1h3------3p1--------1-------1h3-----3p1------1h3------3p1------|
D|--4-----------------4--------------------------4--------------------|
A|--------------------------------------------------------------------|
E|--------------------------------------------------------------------|

Gtr.II
e|--------------------------------------------------------------------|
B|----------------2------------5--------5-----------------------------|
G|----------------3----3-------6--------6-------------6----4---4------|
D|---4---4-------------4-------6--------6-------------6----4---4------|
A|---4---4-------------4----------------------------------------------|
E|---2---2----2-------------------------------------------------------|

      scenes              You’ll know which way to go

Gtr.I
e|--------------------------------------------------------------------|
B|-------------------0----------------0-------------------------------|
G|-------1------1h3-----3p1-----1h3-------3p1------1------------------|
D|---4-----------------------4------------------4---------------------|
A|--------------------------------------------------------------------|
E|--------------------------------------------------------------------|

Gtr.II
e|--------------------------------------------------------------------|
B|--------------------------------------2-----------------------------|
G|------3-----------3----3--3-----------3---3-------------4-----------|
D|------4-----------4----4--4---------------4-------------6-----------|
A|------4-----------4----4--4---------------4-------------6-----------|
E|------2-----------2----2--2------2----------------------------------|

Gtr.I
e|--------------------------------------------------------------------|
B|------0---------------0-----------------------0---------------------|
G|-1h3-----3p1-----1h3----3p1-------1------1h3-----3p1-------1h3------|
D|--------------4---------------4------------------------4------------|
A|--------------------------------------------------------------------|
E|--------------------------------------------------------------------|

Gtr.II
e|--------------------------------------------------------------------|
B|--------------------------------------------------------------------|
G|-------------------4-----4---3--------------------------------------|
D|--------------------------------------------------------------------|
A|--------------------------------------------------------------------|
E|--------------------------------------------------------------------|

Gtr.I
e|--------------------------------------------------------------------|
B|---0------------------------0----------------0----------------------|
G|-------3p1------1------1h3-----3p1------1h3-----3p1-------1---------|
D|-------------4-----------------------4----------------4-------------|
A|--------------------------------------------------------------------|
E|--------------------------------------------------------------------|

Gtr.II
e|--------------------------------------------------------------------|
B|----------4----4----------------------------------------------------|
G|------6-----------------------------4---4----3----3-----------------|
D|---------------------------------------------------------6----------|
A|--------------------------------------------------------------------|
E|--------------------------------------------------------------------|

Gtr.I
e|--------------------------------------------------------------------|
B|--------0----------------0------------------------------------------|
G|--1h3------3p1------1h3-----3p1------1------------------------------|
D|----------------4-----------------4---------------------------------|
A|--------------------------------------------------------------------|
E|--------------------------------------------------------------------|

Gtr.II
e|--------------------------------------------------------------------|
B|--------------------------------------------------------------------|
G|--------------------------------------------------------------------|
D|---------------------------4---6----6-------------------------------|
A|--------------------------------------------------------------------|
E|--------------------------------------------------------------------|

repeat and fade

Gtr.I
e|--------------------------------------------------------------------|
B|--------0----------------0------------------------------------------|
G|--1h3------3p1------1h3-----3p1-------------------------------------|
D|----------------4-----------------4---------------------------------|
A|--------------------------------------------------------------------|
E|--------------------------------------------------------------------|

Gtr.II
e|--------------------------------------------------------------------|
B|--------------------------------------------------------------------|
G|--------------------------------------------------------------------|
D|--------------------------------------------------------------------|
A|--------------------------------------------------------------------|
E|--------------------------------------------------------------------|


Enjoy!

The Hip rock!
Tap to rate this tab
 
# A B C D E F G H I J K L M N O P Q R S T U V W X Y Z