Song name
# A B C D E F G H I J K L M N O P Q R S T U V W X Y Z

Tragically Hip - 38 Years Old tab

Tabbed out with Guitar Pro from a youtube tutorial.  I'm sure the first part is right, 
not sure about the second.

Title: 38 Years Old
Artist: Tragically Hip
Album: Up to Here
Tempo = 100
Steel Guitar

Legend
L - tied note
x - dead note
h - hammer on/pull off
b - bend
s - slide
~ - vibrato
g - ghost note
> - accentuated note
t - trill
M - palm mute
. - staccato
P - popping (bass)
S - slapping (bass)
+ - tapping
W - wide vibrato
< - fade in
w - whammy bar
= - tremolo picking
v - brush up
^ - brush down
V - pick stroke up
n - pick stroke down

Part 1

E |--0--------0--0-----1-----------------1--1--1--1----|
B |--1--------1--1-----1-----------------1--1--1--1----|
G |--2--------2--2-----2-----------------2--2--2--2----|
D |--2--------2--2-----2-----------------2--2--2--2----|
A |--------------------------------0>------------------|
E |----------------------------------------------------|


-----------0--0--0-----------3--3--3----------------|
-----------1--1--1-----------3--3--3--------0--0----|
-----------0--0--0-----------0--0--0--------0--0----|
-----------2--2--2-----------0--0--0--------0--0----|
--3>----------------2>-------------2----------------|
--------------------------------------3>------------|


--0--------0--0-----1-----------------1--1--1--1----|
--1--------1--1-----1-----------------1--1--1--1----|
--2--------2--2-----2-----------------2--2--2--2----|
--2--------2--2-----2-----------------2--2--2--2----|
--------------------------------0>------------------|
----------------------------------------------------|


-----------0--0--0-----------3--3--3---------------||
-----------1--1--1-----------3--3--3--------0--0---||
-----------0--0--0-----------0--0--0--------0--0--o||
-----------2--2--2-----------0--0--0--------------o||
--3>----------------2>-------------2---------------||
--------------------------------------3>-----------||

Part 2

--0--------0--0-----0-------------------------------|
--1--------1--1-----1-----------------1--1--1--1----|
--2--------2--2-----2-----------------2--2--2--2----|
--2--------2--2-----2-----------2-----2--2--2--2----|
--------------------------------0-------------------|
----------------------------------------------------|


-----------------------------0--0--0----------------|
-----------1--1--1-----------3--3--3--------0--0----|
-----------0--0--0-----------0--0--0--------0--0----|
--2--------2--2--2--4--------4--4--4--4-----0--0----|
--3-----------------5--------------5--5-------------|
----------------------------------------------------|


--0--------0--0-----0-------------------------------|
--1--------1--1-----1-----------------1--1--1--1----|
--2--------2--2-----2-----------------2--2--2--2----|
--2--------2--2-----2-----------2-----2--2--2--2----|
--------------------------------0-------------------|
----------------------------------------------------|


-----------0--0--0-----------0--0--0----------------||
-----------1--1--1-----------3--3--3--------0--0----||
-----------0--0--0-----------0--0--0--------0--0----||
--2--------2--2--2--4--------4--4--4--4-------------||
--3-----------------5--------------5--5-------------||
----------------------------------------------------||
Tap to rate this tab
# A B C D E F G H I J K L M N O P Q R S T U V W X Y Z