Song name
# A B C D E F G H I J K L M N O P Q R S T U V W X Y Z

Tragically Hip - Tiger The Lion tab

Help us improve GuitareTab! Take a short survey!
                      The Hip's song- "Tiger the Lion" (Track 2 on album)

-No one has ever done a tab on Tiger the Lion has far as I know. This is a rough draft
the version of Tiger the Lion. The guitar will in standard tuning and the guitar will be
of the rhythm. All corrections are freely welcomed so that this tab will be perfected. 
tab is slash chords/tabs.
Listen to the song a couple of times before u play or else u wont (get the rhythm) (like
Cash used to say).

"I'm total pro, that's why I'm here for" (Kidding guys)
(Grace, Too)


Intro/Verse:
=====
ALL Rhythm Guitar

   Em      D  A   E
E|---------2----------------|
B|---------3--2-------------|
G|---------2--2---1---------|  (2x or 3x)
D|-2----------2---2---------|
A|-2--------------2---------|
E|-0------------------------|


Pre-Chorus

   G
E|-3-----------------------------|
B|-0-----------------------------|
G|-0-----------------------------|
D|-0---7---9---7-----------------|
A|-2---7---9---7-----------------|
E|-3---5---7---5-----------------|


Chorus


E|---------------------|
B|---------------------|
G|---------------------|
D|-5--7--9--7--5--9--7-|
A|-5--7--9--7--5--9--7-|
E|-3--5--7--5--3--7--5-|

Verse

Prechorus : Switch G Chord with
                                  x
                                  x
                                  x
                                  5
                                  5
                                  3
Chorus

Bridge/Solo: fiddle with B thread going from high to low.

Once, corrections are welcome.
any questions or corrections:
jaygroen5@hotmail.com

Groener
Related for Tiger The Lion tab