Song name
# A B C D E F G H I J K L M N O P Q R S T U V W X Y Z

Tragically Hip - The Drop Off tab

e|---------------------------------------------------------------------------|
B|---------------------------------------------------------------------------|
G|--3--3--3--------6---------------------------------------------------------|
D|--4--4--4--------7---------------------------------------------------------|
A|--4--4--4--------7---------------------------------------------------------|
E|--2--0--0--------5---------------------------------------------------------|
    ^^repeat rhythm
e|--------------------------------------------------------------------------|
B|------2-------------------------------------------------------------------|
G|------3---2--4-----1------------------------------------------------------|
D|------0---2--4-----2------------------------------------------------------|
A|----------0--2-----2------------------------------------------------------|
E|----------------or-0------------------------------------------------------|
    ^^ chorus
still working on bridge
Tap to rate this tab
# A B C D E F G H I J K L M N O P Q R S T U V W X Y Z