Song name
# A B C D E F G H I J K L M N O P Q R S T U V W X Y Z

Tragically Hip - Family Band tab

e|---------------------------------------------------------------------------|
B|---------------------------------------------------------------------------|
G|---5-5-5-------------------------------------------------------------------|
D|---5-5-5-------------------------------------------------------------------|
A|---3-3-3-------------------------------------------------------------------|
E|---------------------------------------------------------------------------|
       ^^ intro and main verses
e|---------------|----------------------------------------------------------|
B|----5/3/8/5----|----5/3/1-------------------------------------------------|
G|---------------|----------------------------------------------------------|
D|---------------|----------------------------------------------------------|
A|---------------|----------------------------------------------------------|
E|---------------|----------------------------------------------------------|
    ^repeat 3X and pick as necesary
e|----------3----------------------------------------------------------------|
B|----------3---1--1-------------------2--1--1-------------------------------|
G|----------0---2--0-------------------3--2--0-------------------------------|
D|----------0---3--2-------------------0--2--2-------------------------------|
A|----------2---3--3----------------------3--3-------------------------------|
E|----------3----------------------------------------------------------------|
   chorus^  G   F  C            bridge^
e|---------------------------------------------------------------------------|
B|--3---------------------------------1--------------------------------------|
G|--2---------------------------------2--------------------------------------|
D|--0---------------------------------3--------------------------------------|
A|------------------------------------3--------------------------------------|
E|---------------------------------------------------------------------------|
   load out thru the sno thru part^  samll groups of people smoking
e|------------------------------------3--------------------------------------|
B|---1--------------------------------3--------------------------------------|
G|---0--------------------------------0--------------------------------------|
D|---2--------------------------------0--------------------------------------|
A|---3--------------------------------2--------------------------------------|
E|------------------------------------3--------------------------------------|
    hey get the kick drom loaded    into the backseat
e|--------------------------------------------------------------------------|
B|--3--------------------------------1--------------------------------1-----|
G|--2--------------------------------2--------------------------------0-----|
D|--0--------------------------------3--------------------------------2-----|
A|-----------------------------------3--------------------------------3-----|
E|--------------------------------------------------------------------------|
  down well go virtually unoticed   whats gripping the city aint     town
Tap to rate this tab
 
# A B C D E F G H I J K L M N O P Q R S T U V W X Y Z