Song name
# A B C D E F G H I J K L M N O P Q R S T U V W X Y Z

Tragically Hip - As I Wind Down The Pipes tab

----------------------------------------------------------------------------
               AS I WIND DOWN THE PIPES - Tragically Hip
----------------------------------------------------------------------------
Tabbed By: ONeil 17
Email: oneil_al@hotmail.com

Tuning: e,B,G,D,A,E


e|-------2-----------2-----------------0-----------0------|
G|-----2---2-------2---2-------------2---2-------2---2----|
B|---4-------4---4-------4---------2-------2---2-------2--|
D|-4-----------4-----------4-4-4-2-----------2-----------2|
A|--------------------------------------------------------|
E|--------------------------------------------------------|

| /  slide up
| \  slide down
| h  hammer-on
| p  pull-off
| ~  vibrato
| +  harmonic
| x  Mute note
============================================================================


Tap to rate this tab
# A B C D E F G H I J K L M N O P Q R S T U V W X Y Z