Song name
# A B C D E F G H I J K L M N O P Q R S T U V W X Y Z

Trail Of Tears - Crashing Down tab

Help us improve GuitareTab! Take a short survey!
Band: Trail of Tears
Song: Crashing Down
Album: A New Dimension of Light
tabbed by: christine zuiga
email and ym: wasted_1ne


ATTENTION:
*Standard tuning
*I just tabbed this out so don't expect this to be a 100% correct tab (but it is pretty accurate)

INTRO

--------------------------------------------------------|
--------------------------------------------------------|
--------------------------------------------------------|
2-2-2-3-2------------------2-2-2-3-2--3-2-0-2-0---------|  2x
2-2-2-3-2------------------2-2-2-3-2--------------3-2---|
------------0-0-0-0-0-0-0-------------------------------|

------------------------------------------------------|
------------------------------------------------------|
------------------------------------------------------|
2-2-2-3-2-2-2-2-2-2-2-2--2-2-2-3-2--3-2-0-2-0---------|  2x
2-2-2-3-2-2-2-2-2-2-2-2--2-2-2-3-2--------------3-2---|
------------------------------------------------------|

VERSE 1

-----------------------------|
-----------------------------|
-----------------------------|
3-3-3-3-3-3-3-2-2-2-2-2-2-2--|  8x
3-3-3-3-3-3-3-2-2-2-2-2-2-2--|
-----------------------------|

*play this after verse*


-------------------------------------------------------|
-------------------------------------------------------|
-------------------------------------------------------|
2-2-2-3-2------------------2-2-2-3-2--3-2-0-2-0--------|  2x
2-2-2-3-2------------------2-2-2-3-2--------------3-2--|
------------0-0-0-0-0-0-0------------------------------|


PRE-CHORUS

--------------------------|
--------------------------|
--------------------------|
2-0-2-3-0-0-2-0-2-3-0-0---|  3x
2-0-2-3-0-0-2-0-2-3-0-0---|
--------------------------|

--------------------------|
--------------------------|
--------------------------|
2-0-2-3-0-0-2-0-2-3-0-----|
2-0-2-3-0-0-2-0-2-3-0-----|
--------------------------|

----------------------------      -------|
----------------------------      -------|
----------------------------      -------|
7--7--7--7--7--7--7--7------ 2x   ---7---|
7--7--7--7--7--7--7--7------      ---7---|
5--5--5--5--5--5--5--5------      ---5---|

"confrontation, save the nation..."

CHORUS

----------------------------|
----------------------------|
----------------------------|
7--7--7-7--7--7--7-7--------|
7--7--7-7--7--7--7-7--------|
5--5--5-5--5--5--5-5--------|

-----------------------------------------|  *i dont know how
-----------------------------------------|   many times your
-----------------------------------------|   supposed to play
10-10-10-10-10-10-10-10-10-10-10-10-10---|   this but the chords
10-10-10-10-10-10-10-10-10-10-10-10-10---|   are right just listen
8- 8 - 8- 8- 8-8 -8 -8-  8- 8- 8- 8- 8---|   to the song

------------------------------------------|
------------------------------------------|
------------------------------------------|
7-7-7-7-7-7-7-7--10-10-10-10-10-10-10-10--|
7-7-7-7-7-7-7-7--10-10-10-10-10-10-10-10--|
5-5-5-5-5-5-5-5-- 8- 8- 8- 8- 8- 8- 8- 8--|


VERSE 2

-----------------------------|
-----------------------------|
-----------------------------|
3-3-3-3-3-3-3-2-2-2-2-2-2-2--|  12x
3-3-3-3-3-3-3-2-2-2-2-2-2-2--|
-----------------------------|

*PRE-CHORUS*

*CHORUS*

*this is the ending chord after you play the chorus chords:*

-------|
-------|
-------|
---7---|
---7---|
---5---|
Related for Crashing Down tab