Song name
# A B C D E F G H I J K L M N O P Q R S T U V W X Y Z

Trailerpark - Selbstbefriedigung tab

Artist: Trailerpark
Song: Selbstbefriedigung
Genre: Rap (German/Deutsch)

(English)
This is my interpretation of how to play this song on the guitar.
I heard everything out on my own and if I'm playin it to the
original song it comes extremly close to the original record.
This tab may not be perfect.
JulesThomall

(German)
Das hier ist meine eigene Interpretation wie man diesen Song auf Gitarre spielt.
Ich habe alles alleine herausgehört und wenn ich es parallel zum Original spiele klingt 
es dem Original sehr ähnlich.
Diese Tab könnte nicht perfekt sein.
JulesThomall


Basic Riff / in Verse + Intro

E|-------5-----------3-----------3-5-3------3-5-3---------------------------|
B|---------5-----------5----------------------------------------------------|
G|--------------------------------------------------------------------------|
D|---7---------7-5---------5-3-----------3----------------------------------|
A|---7---------7-5---------5-3-----------3----------------------------------|
E|---5---------5-3---------3-1-----------1----------------------------------|


before the chorus is a little break but you can play this to fill in:
(for den Refrain ist eine kleine Pause das hier kannst du in dieser Zeit als "Fill-In" spielen:)

E|--------------------------------------------------------------------------|
B|--------------------------------------------------------------------------|
G|--------------------------------------------------------------------------|
D|--------------------------------------------------------------------------|
A|--------------------------------------------------------------------------|
E|---5-5-5---3-3-3---1-1-1---3----------------------------------------------|


Chorus/Refrain (based on the power chords from the verse. you have to look
by yourself which rhythm is the right.)
               (besteht aus den Power Chords vom Verse/Strophe. Du musst
selbst herausfinden wie du die Saiten anschlagen möchtest.)

E|--------------------------------------------------------------------------|
B|--------------------------------------------------------------------------|
G|--------------------------------------------------------------------------|
D|---7---------5---------3--------------------------------------------------|
A|---7---------5---------3--------------------------------------------------|
E|---5---------3---------1--------------------------------------------------|



Tabbed by
JulesThomall
Tap to rate this tab
 
# A B C D E F G H I J K L M N O P Q R S T U V W X Y Z