Song name
# A B C D E F G H I J K L M N O P Q R S T U V W X Y Z

Train - Ordinary tab

No one so far has tabbed this right. this the whole song, exept a bit in the chorus 
i can't work out. Anyway enjoy! :)

Band: Train
Song: Ordinary

There's a piano intro and then the guitar kicks in. check out the song for the timing.

 VERSE
------------------------------------|
e|----------------------------------|
B|----------------------------------|
G|----------------------------------|
D|----------------------------------|
A|---33-3--66-6-6/8--33-3--33-3-----|
E|---11-1--44-4-4/6--11-1--11-1-----|

e|-------------------------------|
B|-------------------------------|
G|-------------------------------|
D|-------------------------------|
A|---33-3--66-6-6/8--33-3--66-6--|
E|---11-1--44-4-4/6--11-1--44-4--|

 CHORUS
----------------------------------|
e|--------------------------------|
B|--------------------------------|
G|--------------------------------|
D|--------------------------------|  x2
A|---55555555-8888-1010-1010------|
E|---33333333-6666-8-8--8-8-------|

e|------------------------------|
B|------------------------------|
G|------------------------------|
D|------------------------------|
A|---66666666-8888-1010-108-88--|
E|---44444444-6666-8-8--8-6-66--|
Do this again but don't end on,68 end on, 810.

 VERSE
-------

It is exactly the same as the first verse with some slight differences.

e|---------------------|
B|---------------------|
G|---------------------|
D|---------------------|
A|---33-3--66-6-6/8----|
E|---11-1--44-4-4/6----|
Do this all the way through the verse. Again check the song for timing.

Chorus is exactly the same as before.
After the chorus there's a piano bridge followed by a guitar ending.

e|---------------------|
B|---------------------|
G|---------------------|
D|---------------------|
A|---33-3--33-3--33-3--|
E|---11-1--11-1--11-1--|
Do this 8 times but on the 4th time do this:

e|-----|
B|-----|
G|-----|
D|-----|
A|--33-|
E|--11-|
before going onto the 5th time.
Anyway that's about it. I hope it's right. Please tell me what you think. Thanks for looking!
Tap to rate this tab
# A B C D E F G H I J K L M N O P Q R S T U V W X Y Z