Song name
# A B C D E F G H I J K L M N O P Q R S T U V W X Y Z

Train - Marry Me tab

Marry Me - Train
-------------------------------------------------------------------------------

Played in the chord of C, its a really easy and chill song to play you 

should have fun with it. It is my first tab and I've only been learning a 

short time so if its not perfect, sorry, but it should still sound great!

Tabbed by: jedmundb
Email: jonothong_blakeley@hotmail.com

Tuning: standard

(Verse + Chorus)
e|---------------------------------------------------------------------------|
B|-1-----1-----1-----1-----1-----1-----3-----3-----1-----1-----1-----1-------|
G|---0-----0-----0-----0-----0-----0-----0-----0-----0-----0-----0-----0-----|
D|-----2-----2-----2-----2-----0-----0-----2-----2-----2-----2-----2-----2---|
A|-3-----3-----3-----3-----2-----2-----3-----3-----0-----0-------------------|
E|-------------------------------------------------------------3-----3-------|

e|---------------------------------------------------------------------------|
B|-1-----1-----1-----1-------------------------------------------------------|
G|---0-----0-----0-----0--------REPEAT---------------------------------------|
D|-----2-----2-----2-----2--------x2-----------------------------------------|
A|---------------------------------------------------------------------------|
E|-1-----1-----1-----1-------------------------------------------------------|
(Bridge + Chorus contd)
e|---------------------------------------------------------------------------|
B|-1-----1-----1-----1-----1-----1-----1-----1-------------------------------|
G|---0-----0-----0-----0-----0-----0-----0-----0---------REPEAT--------------|
D|-----2-----2-----2-----2-----2-----2-----2-----2---------x2----------------|
A|---------------------------------------------------------------------------|
E|-0-----0-----0-----0-----1-----1-----1-----1-------------------------------|

Tap to rate this tab
# A B C D E F G H I J K L M N O P Q R S T U V W X Y Z