Song name
# A B C D E F G H I J K L M N O P Q R S T U V W X Y Z

Train - Marry Me tab

-
			     SONG NAME - Band Name
-------------------------------------------------------------------------------
Tabbed by: Bret R.
Email: Tallgiant89@aol.com

This is my first tab so go easy on me. Email me any corrections you may think it needs and thanks 


Tuning:Standard

Intro

e|---------------------------------------------------------------------------|
B|--1---------1------1---------1------1-------1-------1--------1-------------|
G|------0-------0---------0------0--------0-----0---------0------0-----------|
D|----2-----------2-----2----------2----0---------0-----0----------0---------|
A|--3------3---------3------3---------2-----2---------2------2---------------|
E|---------------------------------------------------------------------------|

e|---------------------------------------------------------------------------|
B|-1---------1------1--------1------1--------1------1------------------------|
G|-----0-------0--------0------0--------0------0--------REST-----------------|
D|---2-----------2----2----------2----0----------0---------------------------|
A|-0------0---------0------0-------------------------------------------------|
E|----------------------------------3------3--------3------------------------|

Verse
e|---------------------------------------------------------------------------|
B|--1---------1------1---------1------1-------1-------3--------3-------------|
G|------0-------0---------0------0--------0-----0---------0------0-----------|
D|----2-----------2-----2----------2----0---------0-----0----------0---------|
A|--3------3---------3------3---------2-----2---------2------2---------------|
E|---------------------------------------------------------------------------|

e|---------------------------------------------------------------------------|
B|-1---------1------1--------1------1--------1------1---------1--------------|
G|-----0-------0--------0------0--------0------0--------0-------0------------|
D|---2-----------2----2----------2----0----------0----0-----------0----------|
A|-0------0---------0------0-------------------------------------------------|
E|----------------------------------3------3--------3------3-----------------|

e|---------------------------------------------------------------------------|
B|--1---------1------1---------1------1-------1-------3--------3-------------|
G|------0-------0---------0------0--------0-----0---------0------0-----------|
D|----2-----------2-----2----------2----0---------0-----0----------0---------|
A|--3------3---------3------3---------2-----2---------2------2---------------|
E|---------------------------------------------------------------------------|

e|---------------------------------------------------------------------------|
B|-1---------1------1--------1------1--------1------1---------1--------------|
G|-----0-------0--------0------0--------0------0--------0-------0------------|
D|---2-----------2----2----------2----0----------0----0-----------0----------|
A|-0------0---------0------0-------------------------------------------------|
E|----------------------------------3------3--------3------3-----------------|

e|---------------------------------------------------------------------------|
B|--1---------1------1---------1------1-------1-------1--------1-------------|
G|------0-------0---------0------0--------0-----0---------0------0-----------|
D|----2-----------2-----2----------2----0---------0-----0----------0---------|
A|--3------3---------3------3---------2-----2---------2------2---------------|
E|---------------------------------------------------------------------------|

e|---------------------------------------------------------------------------|
B|-1---------1------1--------1------1--------1------1------------------------|
G|-----0-------0--------0------0--------0------0--------REST-----------------|
D|---2-----------2----2----------2----0----------0---------------------------|
A|-0------0---------0------0-------------------------------------------------|
E|----------------------------------3------3--------3------------------------|

Chorus

e|---------------------------------------------------------------------------|
B|--1---------1------1---------1------1-------1-------3--------3-------------|
G|------0-------0---------0------0--------0-----0---------0------0-----------|
D|----2-----------2-----2----------2----0---------0-----0----------0---------|
A|--3------3---------3------3---------2-----2---------2------2---------------|
E|---------------------------------------------------------------------------|

e|---------------------------------------------------------------------------|
B|-1---------1------1--------1------1--------1------1---------1--------------|
G|-----0-------0--------0------0--------0------0--------0-------0------------|
D|---2-----------2----2----------2----0----------0----0-----------0----------|
A|-0------0---------0------0-------------------------------------------------|
E|----------------------------------3------3--------3------3-----------------|

e|---------------------------------------------------------------------------|
B|--1---------1------1---------1------1-------1-------3--------3-------------|
G|------0-------0---------0------0--------0-----0---------0------0-----------|
D|----2-----------2-----2----------2----0---------0-----0----------0---------|
A|--3------3---------3------3---------2-----2---------2------2---------------|
E|---------------------------------------------------------------------------|

e|---------------------------------------------------------------------------|
B|-1---------1------1--------1------1--------1------1---------1--------------|
G|-----0-------0--------0------0--------0------0--------0-------0------------|
D|---2-----------2----2----------2----0----------0----0-----------0----------|
A|-0------0---------0------0-------------------------------------------------|
E|----------------------------------3------3--------3------3-----------------|

e|---------------------------------------------------------------------------|
B|--1---------1------1---------1------1-------1-------1--------1-------------|
G|------0-------0---------0------0--------0-----0---------0------0-----------|
D|----2-----------2-----2----------2----0---------0-----0----------0---------|
A|--3------3---------3------3---------2-----2---------2------2---------------|
E|---------------------------------------------------------------------------|

e|---------------------------------------------------------------------------|
B|-1---------1------1--------1------1--------1------1------------------------|
G|-----0-------0--------0------0--------0------0--------REST-----------------|
D|---2-----------2----2----------2----0----------0---------------------------|
A|-0------0---------0------0-------------------------------------------------|
E|----------------------------------3------3--------3------------------------|

Verse
e|---------------------------------------------------------------------------|
B|--1---------1------1---------1------1-------1-------3--------3-------------|
G|------0-------0---------0------0--------0-----0---------0------0-----------|
D|----2-----------2-----2----------2----0---------0-----0----------0---------|
A|--3------3---------3------3---------2-----2---------2------2---------------|
E|---------------------------------------------------------------------------|

e|---------------------------------------------------------------------------|
B|-1---------1------1--------1------1--------1------1---------1--------------|
G|-----0-------0--------0------0--------0------0--------0-------0------------|
D|---2-----------2----2----------2----0----------0----0-----------0----------|
A|-0------0---------0------0-------------------------------------------------|
E|----------------------------------3------3--------3------3-----------------|

e|---------------------------------------------------------------------------|
B|--1---------1------1---------1------1-------1-------3--------3-------------|
G|------0-------0---------0------0--------0-----0---------0------0-----------|
D|----2-----------2-----2----------2----0---------0-----0----------0---------|
A|--3------3---------3------3---------2-----2---------2------2---------------|
E|---------------------------------------------------------------------------|

e|---------------------------------------------------------------------------|
B|-1---------1------1--------1------1--------1------1---------1--------------|
G|-----0-------0--------0------0--------0------0--------0-------0------------|
D|---2-----------2----2----------2----0----------0----0-----------0----------|
A|-0------0---------0------0-------------------------------------------------|
E|----------------------------------3------3--------3------3-----------------|

Bridge
e|---------------------------------------------------------------------------|
B|--1---------1------1---------1------1-------1-------1--------1-------------|
G|------0-------0---------0------0--------0-----0---------0------0-----------|
D|----2-----------2-----2----------2----0---------0-----0----------0---------|
A|--3------3---------3------3---------2-----2---------2------2---------------|
E|---------------------------------------------------------------------------|

e|---------------------------------------------------------------------------|
B|-1---------1------1--------1------1--------1------1------------------------|
G|-----0-------0--------0------0--------0------0--------REST-----------------|
D|---2-----------2----2----------2----0----------0---------------------------|
A|-0------0---------0------0-------------------------------------------------|
E|----------------------------------3------3--------3------------------------|


Chorus
e|---------------------------------------------------------------------------|
B|--1---------1------1---------1------1-------1-------3--------3-------------|
G|------0-------0---------0------0--------0-----0---------0------0-----------|
D|----2-----------2-----2----------2----0---------0-----0----------0---------|
A|--3------3---------3------3---------2-----2---------2------2---------------|
E|---------------------------------------------------------------------------|

e|---------------------------------------------------------------------------|
B|-1---------1------1--------1------1--------1------1---------1--------------|
G|-----0-------0--------0------0--------0------0--------0-------0------------|
D|---2-----------2----2----------2----0----------0----0-----------0----------|
A|-0------0---------0------0-------------------------------------------------|
E|----------------------------------3------3--------3------3-----------------|

e|---------------------------------------------------------------------------|
B|--1---------1------1---------1------1-------1-------3--------3-------------|
G|------0-------0---------0------0--------0-----0---------0------0-----------|
D|----2-----------2-----2----------2----0---------0-----0----------0---------|
A|--3------3---------3------3---------2-----2---------2------2---------------|
E|---------------------------------------------------------------------------|

e|---------------------------------------------------------------------------|
B|-1---------1------1--------1------1--------1------1---------1--------------|
G|-----0-------0--------0------0--------0------0--------0-------0------------|
D|---2-----------2----2----------2----0----------0----0-----------0----------|
A|-0------0---------0------0-------------------------------------------------|
E|----------------------------------3------3--------3------3-----------------|

e|---------------------------------------------------------------------------|
B|--1---------1------1---------1------1-------1-------1--------1-------------|
G|------0-------0---------0------0--------0-----0---------0------0-----------|
D|----2-----------2-----2----------2----0---------0-----0----------0---------|
A|--3------3---------3------3---------2-----2---------2------2---------------|
E|---------------------------------------------------------------------------|

e|---------------------------------------------------------------------------|
B|-1---------1------1--------1------1--------1------1------------------------|
G|-----0-------0--------0------0--------0------0--------REST-----------------|
D|---2-----------2----2----------2----0----------0---------------------------|
A|-0------0---------0------0-------------------------------------------------|
E|----------------------------------3------3--------3------------------------|


| /  slide up
| \  slide down
| h  hammer-on
| p  pull-off
| ~  vibrato
| +  harmonic
| x  Mute note
===============================================================================
Tap to rate this tab
 
# A B C D E F G H I J K L M N O P Q R S T U V W X Y Z