Song name
# A B C D E F G H I J K L M N O P Q R S T U V W X Y Z

Train - Hey Soul Sister tab

               I Know that there are good bit of chord tabs
                  but not everyone can read chords well
                   but can read this way better so
                      hear is my 41st tab ive
                         done. so enjoy (:





Song : Hey Soul Sister
Band : Train
Tune : Standard
tabbed : Wild577mxracer

=================
Things to Know!
=================
h - Hammer on
p - Pull off
~ - Let Ring
b - Bend
x - Muted


Vocal
|--2h4-2--0h2h4-----0h2h4----------4-4-4~--2-4-5-4-2-0--4-4-4~----|
|---------------2b--------2b----0---------------------------------|
|-----------------------------------------------------------------|
|-----------------------------------------------------------------|
|-----------------------------------------------------------------|
|-----------------------------------------------------------------|

Vocals
|--0-5--4-2--2-0-4-0--0-5-4-2-0--------0-------------|
|-------------------------------4~-0-4---2~----------|
|----------------------------------------------------|
|----------------------------------------------------|
|----------------------------------------------------|
|----------------------------------------------------|

Vocals
|--0--4----------4-4-5--4-2-0-0b-0-0-0h2-----0-5-4-2-4-0--0-0-2-5----|
|-------0b-0~--0-------------------------2~--------------------------|
|--------------------------------------------------------------------|
|--------------------------------------------------------------------|
|--------------------------------------------------------------------|
|--------------------------------------------------------------------|

Vocals
|--4-2-0------------0------------|
|--------4-0----4-2----2~--------|
|-------------1------------------|
|--------------------------------|
|--------------------------------|
|--------------------------------|

Vocals
|--7--4p2-2-0--7-7-4-4-2-0-0-2--4-0-0--4-0-0-2-2-2-2-2-2---0----|
|--------------------------------------------------------2------|
|---------------------------------------------------------------|
|---------------------------------------------------------------|
|---------------------------------------------------------------|
|---------------------------------------------------------------|

Vocals
|--7p4-4p2-2-0--7--7-4-4-2-0-0-2--4-----0-2~----0------|
|-----------------------------------2-2-------4--------|
|------------------------------------------------------|
|------------------------------------------------------|
|------------------------------------------------------|
|------------------------------------------------------|

Vocals
|--2h4-2--0h2h4----0h2h4-----4-4-4p2p0-----2-4-5-4-2-0--4-0-0-2-2~----|
|---------------2b-------2b------------0~-----------------------------|
|---------------------------------------------------------------------|
|---------------------------------------------------------------------|
|---------------------------------------------------------------------|
|---------------------------------------------------------------------|

Vocals
|--0-5-4-2-0-4--0--0-5-4-2-0-----------0------0~-------|
|----------------------------4--0--0-4---2-2~----------|
|------------------------------------------------------|
|------------------------------------------------------|
|------------------------------------------------------|
|------------------------------------------------------|

Vocals
|--4-4--4-4p2p0---4-0------2-4-5-4-2-0-4-0-0-2----5-4-2-0-4-----|
|---------------0-----0--0---------------------2----------------|
|---------------------------------------------------------------|
|---------------------------------------------------------------|
|---------------------------------------------------------------|
|---------------------------------------------------------------|

Vocals
|--2-4-5-4-2-0-4--2-2-4-5-4-2-0--0---0--2-2p0~-------|
|----------------------------------2-----------------|
|----------------------------------------------------|
|----------------------------------------------------|
|----------------------------------------------------|
|----------------------------------------------------|

Vocals
|--7--4p2-2-0--7-7-4-4-2-0-0-2--4-0-0--4-0-0-2-2-2-2-2-2---0----|
|--------------------------------------------------------2------|
|---------------------------------------------------------------|
|---------------------------------------------------------------|
|---------------------------------------------------------------|
|---------------------------------------------------------------|

Vocals
|--7p4-4p2-2-0--7--7-4-4-2-0-0-2--4-----0-2~----0------|
|-----------------------------------2-2-------4--------|
|------------------------------------------------------|
|------------------------------------------------------|
|------------------------------------------------------|
|------------------------------------------------------|

Vocals
|--0-4-4-4-4-4-4-2-0-2-0-2--2-7-7-4--4-4p2-0-4-4-4-0-2--4-0-0-----|
|-----------------------------------------------------------------|
|-----------------------------------------------------------------|
|-----------------------------------------------------------------|
|-----------------------------------------------------------------|
|-----------------------------------------------------------------|

Vocals
|--2-4-0-0----0---4-4-4-4-7-7-7-7-2-0-2--0-2-0-4--0-0-------|
|-----------4-----------------------------------------2-----|
|-----------------------------------------------------------|
|-----------------------------------------------------------|
|-----------------------------------------------------------|
|-----------------------------------------------------------|

Vocals
|----0-2-4-0-0--2-0----2-0~--------|
|--2----------------2--------------|
|----------------------------------|
|----------------------------------|
|----------------------------------|
|----------------------------------|


Vocals
|--7--4p2-2-0--7-7-4-4-2-0-0-2--4-2-2--4-0-0-2-2-2-2-2-2---0----|
|--------------------------------------------------------2------|
|---------------------------------------------------------------|
|---------------------------------------------------------------|
|---------------------------------------------------------------|
|---------------------------------------------------------------|

Vocals
|--7p4-4p2-2-0--7--7-4-4-2-0-0-2--4-----0-2-2h4p2--0~-----|
|-----------------------------------2-2-------------------|
|---------------------------------------------------------|
|---------------------------------------------------------|
|---------------------------------------------------------|
|---------------------------------------------------------|

Vocals
|--7p4-4p2-2-0--7--7-4-4-2-0-0-2--4-----0-2~----0------|
|-----------------------------------2-2-------4--------|
|------------------------------------------------------|
|------------------------------------------------------|
|------------------------------------------------------|
|------------------------------------------------------|

Vocal Ending
|--2h4-2--0h2h4-----0h2h4-----0-0--2h4p2--0h2h4-----0h2h4-------4~--|
|---------------2b--------2b--------------------2b--------2b--0-----|
|-------------------------------------------------------------------|
|-------------------------------------------------------------------|
|-------------------------------------------------------------------|
|-------------------------------------------------------------------|

Chords
|--x-x--x--x--x--x------|
|--x-x--x--x--x--x------|
|--x-x--x--x--x--x------|
|--x-x--x--x--x--x------|
|-----------------------|
|-----------------------|

Chords play twice
|--2-2222222222222--2-222222222222--4-4444444444444--0-0000000000000-----|
|--0-0000000000000--2-222222222222--4-4444444444444--0-0000000000000-----|
|--4-4444444444444--3-333333333333--4-4444444444444--1-1111111111111-----|
|------------------------------------------------------------------------|
|------------------------------------------------------------------------|
|------------------------------------------------------------------------|

Chords
|--2-2222222222222--2-222222222222--4-4444444444444--0-0000002222222-----|
|--0-0000000000000--2-222222222222--4-4444444444444--0-0000002222222-----|
|--4-4444444444444--3-333333333333--4-4444444444444--1-1111113333333-----|
|------------------------------------------------------------------------|
|------------------------------------------------------------------------|
|------------------------------------------------------------------------|

Chords
|--2-2222222222222--2-222222222222--4-4444444444444--0-0000000000000-----|
|--0-0000000000000--2-222222222222--4-4444444444444--0-0000000000000-----|
|--4-4444444444444--3-333333333333--4-4444444444444--1-1111111111111-----|
|------------------------------------------------------------------------|
|------------------------------------------------------------------------|
|------------------------------------------------------------------------|

Chords
|--2-2222222222222--2-222222222222--4-4444444444444--0-0000002222222-----|
|--0-0000000000000--2-222222222222--4-4444444444444--0-0000002222222-----|
|--4-4444444444444--3-333333333333--4-4444444444444--1-1111113333333-----|
|------------------------------------------------------------------------|
|------------------------------------------------------------------------|
|------------------------------------------------------------------------|

Chords play three times
|--0000000000000-2222222222222-------|
|--0000000000000-2222222444222-------|
|--1111111111111-3333333444333-------|
|------------------------------------|
|------------------------------------|
|------------------------------------|

Chords
|--0000000000000-2222222-------|
|--0000000000000-2222222-------|
|--1111111111111-3333333-------|
|------------------------------|
|------------------------------|
|------------------------------|

Chords play twice
|--2-2222222222222--2-222222222222--4-4444444444444--0-0000000000000-----|
|--0-0000000000000--2-222222222222--4-4444444444444--0-0000000000000-----|
|--4-4444444444444--3-333333333333--4-4444444444444--1-1111111111111-----|
|------------------------------------------------------------------------|
|------------------------------------------------------------------------|
|------------------------------------------------------------------------|

Chords
|--2-2222222222222--2-222222222222--4-4444444444444--0-0000002222222-----|
|--0-0000000000000--2-222222222222--4-4444444444444--0-0000002222222-----|
|--4-4444444444444--3-333333333333--4-4444444444444--1-1111113333333-----|
|------------------------------------------------------------------------|
|------------------------------------------------------------------------|
|------------------------------------------------------------------------|

Chords
|--2-2222222222222--2-222222222222--4-4444444444444--0-0000000000000-----|
|--0-0000000000000--2-222222222222--4-4444444444444--0-0000000000000-----|
|--4-4444444444444--3-333333333333--4-4444444444444--1-1111111111111-----|
|------------------------------------------------------------------------|
|------------------------------------------------------------------------|
|------------------------------------------------------------------------|

Chords
|--2-2222222222222--2-222222222222--4-4444444444444--0-0000002222222-----|
|--0-0000000000000--2-222222222222--4-4444444444444--0-0000002222222-----|
|--4-4444444444444--3-333333333333--4-4444444444444--1-1111113333333-----|
|------------------------------------------------------------------------|
|------------------------------------------------------------------------|
|------------------------------------------------------------------------|

Chords play five times
|--0000000000000-2222222222222-------|
|--0000000000000-2222222444222-------|
|--1111111111111-3333333444333-------|
|------------------------------------|
|------------------------------------|
|------------------------------------|

Chords
|--0000000000000-2222222222222-------|
|--0000000000000-2222222222222-------|
|--1111111111111-3333333333333-------|
|------------------------------------|
|------------------------------------|
|------------------------------------|

Chords
|--2-2222222222222--2-222222222222--4-4444444444444--0-0000000000000-----|
|--0-0000000000000--2-222222222222--4-4444444444444--0-0000000000000-----|
|--4-4444444444444--3-333333333333--4-4444444444444--1-1111111111111-----|
|------------------------------------------------------------------------|
|------------------------------------------------------------------------|
|------------------------------------------------------------------------|

Chords Ending
|--2-2222222222222--2-222222222222--4-4444444444444--0-000000--2--2~-----|
|--0-0000000000000--2-222222222222--4-4444444444444--0-000000--2--0~-----|
|--4-4444444444444--3-333333333333--4-4444444444444--1-111111--3--4~-----|
|------------------------------------------------------------------------|
|------------------------------------------------------------------------|
|------------------------------------------------------------------------|


================Thanks For Viewing Please Rate And Comment!==================
Tap to rate this tab
 
# A B C D E F G H I J K L M N O P Q R S T U V W X Y Z