Song name
# A B C D E F G H I J K L M N O P Q R S T U V W X Y Z

Train - Let It Roll tab

Train - Let it Roll
Standard Tuning
tabbed by jjhand




Acoustic Intro - play this 2x

play 2x                                     play 2x
   C#m9                                    B/A
e|-------0-------0-------0-------0-|      -------0-------0-------0-------0-|
B|---4-------4-------4-------4-----|      ---4-------4-------4-------4-----|
G|-----4-------4-------4-------4---|      -----4-------4-------4-------4---|
D|---------------------------------|      ---------------------------------|
A|-4-------------------------------|      -0-------------------------------|
E|---------------------------------|      ---------------------------------|


e|--------------------|-----------------------|
B|--------------------|-0---------------------|
G|-2--------4---------|-2---------------------|
D|-4--------2---------|-2---------------------|
A|-4--------x---------|-0---------------------|
E|-2--------4---------|-----------------------|


Verse pt 1
e|---------0----0----0--0-0-|
B|----5----5----4----4--4-5-|
G|-4--4----4----4----4--4-4-|
D|-2--2----2----2----2------|
A|--------------------------|
E|--------------------------|


(0:46) Part 2

e|----0---0---0---0---0-0-|----0---0---0---0---0-|
B|-5--5---5---4---4---4-5-|----5---5---5---5---5-|
G|-2--2---2---4---4---4-4-|----4---4---4---4---4-| play Part 1
D|------------------------|----------------------|
A|------------------------|-2--------------------|
E|------------------------|----------------------|
 | 
 | Electric - w/ slide as needed
e|------------------------|-7/9~~~~--------------|-7-----------|------------|
B|-2---------4------------|----------------------|-----------7/9_______-----|
G|-2---------4------------|----------------------|-8-----------|------------|
D|------------------------|----------------------|-----------7/9_______-----|
A|------------------------|----------------------|-------------|------------|
E|------------------------|----------------------|-------------|------------|

(0:52) - back to part 1, play similar to before


(1:02) Slide Part
|-----------------|-------------
|-12p9\7----------|-------------
|---------/9~~~~~~~-------------
|-----------------|-------------
|-----------------|-------------
|-----------------|-------------




Chorus
Acoustic - Arpeggiate chords (pluck strings individually up & down)
e|-0------------|-0-----------|-0-----------|-0-----------|
B|-0------------|-0-----------|-4-----------|-4-----------|
G|-2------------|-2-----------|-4-----------|-4-----------|
D|-2------------|-2-----------|-2-----------|-2-----------|
A|-0------------|-0-----------|-4-----------|-4-----------|
E|--------------|-------------|-------------|-------------|

e|-0------------|-0-----------|-------------|-0-----------|
B|-0------------|-0-----------|-------------|-0-----------|
G|-2------------|-2-----------|-2-----4-----|-2-----------|
D|-2------------|-2-----------|-4-----2-----|-2-----------|
A|-0------------|-0-----------|-4-----x-----|-0-----------|
E|--------------|-------------|-2-----4-----|-------------|



Play Verse Again

Play Chorus Again



Bridge - Acoustic Strums chords, electric plays these notes:

   Amaj7           Amaj7/F#        E6
e|---------------|-----------0---|---------------|---------------|
B|-------2-------|-------2-------|-------2-------|-------2-------|
G|-----1---------|-----1---------|-----1---------|-----1---------|
D|---2-----------|---2-----------|---2-----------|---2-----------|
A|-0-------------|---------------|---------------|---------------|
E|---------------|-2-------------|-0-------------|-2-------------|

e|---------------|-----------0---|---------------|-------2-------|
B|-------2-------|-------2-------|-------2-------|-------2-------|
G|-----1---------|-----1---------|-----1---------|-----1---------|
D|---2-----------|---2-----------|---2-----------|---2-----------|
A|-0-------------|---------------|---------------|---------------|
E|---------------|-2-------------|-0-------------|-2-------------|

e|---------------|---------------|
B|-------2-------|---------------|
G|-----1---------|-2-------------|
D|---2-----------|-4-------------|
A|-0-------------|-4-------------|
E|---------------|-2-------------|


Play Chorus


Play Intro to end song





KEY
************************************

| /   slide up
| \   slide down
| h   hammer-on
| p   pull-off
| ~   vibrato
| x   Mute note

************************************
Tap to rate this tab
 
# A B C D E F G H I J K L M N O P Q R S T U V W X Y Z