Song name
# A B C D E F G H I J K L M N O P Q R S T U V W X Y Z

Train - Marry Me tab

There you go! Let me know if you have trouble or if I screwed something up.

Thanks!






INTRO -
e|-----------------------------------------------|
B|---1-----1----1-----1----1-----1----1-----1----|
G|-------0---0------0---0------0---0------0---0--|
D|------2---2------2---2------3---3------3---3---|
A|---3---(3)----3---(3)----3---(3)----3---(3)----|
E|-----------------------------------------------|
                                     |Let Ring
e|-----------------------------------------------|
B|---1-----1----1-----1----1-----1----1----------|
G|-------0---0------0---0------0---0-------------|
D|------2---2------2---2------3---3--------------|
A|---3---(3)----3---(3)----3---(3)----3----------|
E|-----------------------------------------------|
                                     |Let Ring



VERSE -
e|-----------------------------------------------|
B|---1-----1----1-----1----1-----1----3-----3----|
G|-------0---0------0---0------0---0------0---0--|
D|------2---2------2---2------0---0------0---0---|
A|---3---(3)----3---(3)----3---(3)----3---(3)----|
E|-----------------------------------------------|

e|-----------------------------------------------|
B|---1-----1----1-----1----1-----1----1-----1----|
G|-------0---0------0---0------0---0------0---0--|
D|------2---2------0---0------3---3------3---3---|
A|---3---(3)----2---(2)----3---(3)----3---(3)----|
E|-----------------------------------------------|

ABOVE x2

e|-----------------------------------------------|
B|---1-----1----1-----1----1-----1----1-----1----|
G|-------0---0------0---0------0---0------0---0--|
D|------2---2------2---2------3---3------3---3---|
A|---3---(3)----3---(3)----3---(3)----3---(3)----|
E|-----------------------------------------------|
                                     |Let Ring
e|-----------------------------------------------|
B|---1-----1----1-----1----1-----1----1----------|
G|-------0---0------0---0------0---0-------------|
D|------2---2------2---2------3---3--------------|
A|---3---(3)----3---(3)----3---(3)----3----------|
E|-----------------------------------------------|
                                     |Let Ring


The first and second chorus are the same as the verse above.


After second chorus -
e|-----------------------------------------------|
B|---1-----1----1-----1----1-----1----1-----1----|
G|-------0---0------0---0------0---0------0---0--|
D|------3---3------3---3------3---3------3---3---|
A|---3---(3)----3---(3)----3---(3)----3---(3)----|
E|-----------------------------------------------|

e|-----------------------------------------------|
B|---1-----1----1-----1----1-----1----1h3---3----|
G|-------0---0------0---0------0---0------0---0--|
D|------2---2------2---2------0---0------2---2---|
A|---3---(3)----3---(3)----3---(3)----3---(3)----|
E|-----------------------------------------------|

ABOVE x2

e|-----------------------------------------------|
B|---1-----1----1-----1----1-----1----1----------|
G|-------0---0------0---0------0---0-------------|
D|------3---3------3---3------3---3--------------|
A|---3---(3)----3---(3)----3---(3)----3----------|
E|-----------------------------------------------|


3rd/FINAL CHORUS
e|-----------------------------------------------|
B|---1-----1----1-----1----1-----1----1h3---3----|
G|-------0---0------0---0------0---0------0---0--|
D|------2---2------2---2------0---0------0---0---|
A|---3---(3)----3---(3)----3---(3)----3---(3)----|
E|-----------------------------------------------|

e|-----------------------------------------------|
B|---1-----1----1-----1----1-----1----1-----1----|
G|-------0---0------0---0------0---0------0---0--|
D|------2---2------0---0------3---3------3---3---|
A|---3---(3)----2---(2)----3---(3)----3---(3)----|
E|-----------------------------------------------|

ABOVE x2

e|-----------------------------------------------|
B|---1-----1----1-----1----1-----1----1-----1----|
G|-------0---0------0---0------0---0------0---0--|
D|------2---2------2---2------3---3------3---3---|
A|---3---(3)----3---(3)----3---(3)----3---(3)----|
E|-----------------------------------------------|

e|-----------------------------------------------|
B|---1-----1----1-----1----1-----1----1-----1----|
G|-------0---0------0---0------0---0------0---0--|
D|------2---2------2---2------3---3------3---3---|
A|---3---(3)----3---(3)----3---(3)----3---(3)----|
E|-----------------------------------------------|
                                     |Let Ring
e|-----------------------------------------------|
B|---1-----1----1-----1----1-----1----1----------|
G|-------0---0------0---0------0---0-------------|
D|------2---2------2---2------3---3--------------|
A|---3---(3)----3---(3)----3---(3)----3----------|
E|-----------------------------------------------|
                                     |Let Ring



As far as I know there are 3 different ways to play this song depending on personal 
preference. The three tab boxes below will show you each way...


1 -
e|--------------|
B|---1-----1----|
G|-------0---0--|
D|------2---2---|
A|---3----3-----|
E|--------------|

2 -
e|--------------|
B|---1-----1----|
G|-------0---0--|
D|------2---2---|
A|---3----------|
E|--------------|

3 -
e|--------------|
B|---1-----1----|
G|-------0---0--|
D|------2---2---|
A|---3-----3----|
E|--------------|



Tab Legend (used in this tab)-

( ) - Optional note
h - Hammer on
Tap to rate this tab
 
# A B C D E F G H I J K L M N O P Q R S T U V W X Y Z