Train - Hopeless chords

Highlighted       Show chord diagrams
Hopeless by Train.
Tabbed by jarod dotson.
This is how I play it.
Enjoy.


-Intro- (x3)

|--------------------------------------|
|---2-----0h2p0-----0h2--------0h2p0-2-|
|---2---2-------2---2---2------2-----2-|  
|-----------------0-------0--0---------|   
|-----0--------------------------------|   
|-2------------------------------------|

|--------------------------------0h2p0-------|
|-----0h2p0-------0--2---0h2-------------0---|
|---2-------2---2--------2---2-------------2-|
|----------------------0-------0-------0-----|
|-------------0------------------------------|
|-2------------------------------------------|


    (Singing starts on 2nd time playing intro)

I hopelessly, helplessly, wonder why 
Everything gotta change around me

    (slight pause)

-Verse 1-

F#m                        A               D
I'd tell it to your face 
F#m                   A          D
But you lost your face along the way 
F#m                           A      
and I'd say it on the phone 
     D
If I thought you were alone
F#m           A       D
why do things have to change 


-PreChorus-
E   F#m               D
 But you don't need my pictures on your wall 
E   F#m          D
 You say you need no one 
E   F#m               D
 And you don't need my secret midnight call 
E   F#m            D
 I guess you need no one 


-Chorus-
   F#m     A          D
Is anybody waiting at home for you 
           F#m            A             D
Cause it's time that will tell if it's heaven if it's hell or if it's 
F#m     A           D
Anybody waiting at home for you 
           F#m            A               D
Cause it's time that will tell this tale 


-Verse 2-
      F#m         A
You're in and out up and down 
D                                          
Wonder if you're lost or found
   F#m       A        D
But I got my hands on you 

-Instrumental-
F#m  A  D (x2)

        F#m              A               
Are you strong enough to tow the line 
D                          F#m
Are you gonna make me yours 
   A             D
Or do I make you mine
    F#m            A
I'm in and out I'm up and down
D               
Wonder if I'm lost or found
    F#m         A        D
But I need your hands on me now 


-PreChorus-

-Chorus-

-Instrumental-

A   D  (x4)
F#m   A   D   (x3)

-Intro-
Tap to rate this tab
 
# A B C D E F G H I J K L M N O P Q R S T U V W X Y Z