Song name
# A B C D E F G H I J K L M N O P Q R S T U V W X Y Z

Train - Mississippi tab

Train - Drops of Jupiter - Mississippi

Another version of benfold15's Mississippi tab (Version 2) that I believe to be more correct.

1st Riff:

e|------3-----2-----3---------2---------3-----2-----3---------2-----|
B|----3-----3-----3-----3---3-----3---3-----3-----3-----3---3-----3-|
G|--0-----0-----0-----0---0-----0---0-----0-----0-----0---0-----0---|
D|------------------------------------------------------------------|
A|------------------------------------------------------------------|
E|------------------------------------------------------------------|


2nd Riff:

e|------3-----2-----3---------2---------3-----2-----3---------2-----|
B|----3-----3-----3-----3---3-----3---3-----3-----3-----3---3-----3-|
G|------------------------------------------------------------------|
D|--2-----2-----2-----2---2-----2---2-----2-----2-----2---2-----2---|
A|------------------------------------------------------------------|
E|------------------------------------------------------------------|

You can expand on these riffs by changing the "bass" note.
Tap to rate this tab
 
# A B C D E F G H I J K L M N O P Q R S T U V W X Y Z