Song name
# A B C D E F G H I J K L M N O P Q R S T U V W X Y Z

Train - Marry Me tab

Tuning:Standard

Intro Chords:

1- 0,X,2,0,1,0
2- 1,x,3,0,1,0

Verse Chords:

Cmaj- x,3,2,0,1,0
2- 0,2,0,0,1,0
3- 0,2,0,0,3,0
4- x,0,2,0,1,0
5- 3,x,0,0,1,0
6- 1,x,3,0,1,0

Bridge Chords:
1-x,1,3,0,1,0
2-x,0,3,0,1,0
Caj- x,3,2,0,1,0
4- x,2,0,0,1,0

Basic Fingering Pattern and Beat

e|------------------------|
B|-(1+)---------(+)-------|
G|--------(+)---------(+)-|
D|-----(2)---------(4)----|
A|------------------------|
E|-(1+)-------(3)---------|
  1+    2  +   3 +  4  +


Intro
e|------------------|------------------|----------------|----------------|
B|-1--------1-------|-1--------1-------|-1-------1------|-1-------1------|
G|------0--------0--|------0--------0--|-----0-------0--|-----0-------0--|
D|----2--------2----|----2--------2----|---3-------3----|---3-------3----|
A|------------------|------------------|----------------|----------------|
E|-0------0---------|-0------0---------|-1-----1--------|-1-----1--------|

e|------------------|------------------|----------------|----------------|
B|-1--------1-------|-1--------1-------|-1-------1------|-1--------------|
G|------0--------0--|------0--------0--|-----0-------0--|----------------|
D|----2--------2----|----2--------2----|---3-------3----|------REST------|
A|------------------|------------------|----------------|----------------|
E|-0------0---------|-0------0---------|-1-----1--------|-1--------------|


Verse

		Forever can never be long enough for me...
e|------------------|------------------|---------------|-----------------|
B|-1--------1-------|-1--------1-------|-1-------1-----|-3-------3-------|
G|------0--------0--|------0--------0--|-----0-------0-|-----0-------0---|
D|----2--------2----|----2--------2----|---0-------0---|---0-------0-----|
A|-3------3---------|-3------3---------|-2-----2-------|-2-----2---------|
E|------------------|------------------|---------------|-----------------|
		To feel like I've had long enough with you...		
e|------------------|------------------|---------------|-----------------|
B|-1--------1-------|-1--------1-------|-1-------1-----|-1-------1-------|
G|------0--------0--|------0--------0--|-----0-------0-|-----0-------0---|
D|----2--------2----|----2--------2----|---0-------0---|---3-------3-----| 
A|-0------0---------|-0------0---------|---------------|-----------------|
E|------------------|------------------|-3----3--------|-1----1----------|  

		Forget the world now, we won't let them see...
e|------------------|------------------|---------------|-----------------|
B|-1--------1-------|-1--------1-------|-1-------1-----|-3-------3-------|
G|------0--------0--|------0--------0--|-----0-------0-|-----0-------0---|
D|----2--------2----|----2--------2----|---0-------0---|---0-------0-----|
A|-3------3---------|-3------3---------|-2-----2-------|-2-----2---------|
E|------------------|------------------|---------------|-----------------|
		But there's one thing left to do...			
e|------------------|------------------|---------------|-----------------|
B|-1--------1-------|-1--------1-------|-1-------1-----|-1-------1-------|
G|------0--------0--|------0--------0--|-----0-------0-|-----0-------0---|
D|----2--------2----|----2--------2----|---0-------0---|---3-------3-----| 
A|-0------0---------|-0------0---------|---------------|-----------------|
E|------------------|------------------|-3----3--------|-1----1----------|  


Chorus
		Now that the weight has lifted...
e|------------------|------------------|----------------|----------------|
B|-1--------1-------|-1--------1-------|-1-------1------|-1-------1------|
G|------0--------0--|------0--------0--|-----0-------0--|-----0-------0--|
D|----2--------2----|----2--------2----|---3-------3----|---3-------3----|
A|------------------|------------------|----------------|----------------|
E|-0------0---------|-0------0---------|-1-----1--------|-1-----1--------|
		
		Love has surely shifted my way...
e|------------------|------------------|----------------|----------------|
B|-1--------1-------|-1--------1-------|-1-------1------|-1--------------|
G|------0--------0--|------0--------0--|-----0-------0--|----------------|
D|----2--------2----|----2--------2----|---3-------3----|------REST------|
A|------------------|------------------|----------------|----------------|
E|-0------0---------|-0------0---------|-1-----1--------|-1--------------|
		Marry me...
e|------------------|------------------|---------------|-----------------|
B|-1--------1-------|-1--------1-------|-1-------1-----|-3-------3-------|
G|------0--------0--|------0--------0--|-----0-------0-|-----0-------0---|
D|----2--------2----|----2--------2----|---0-------0---|---0-------0-----|
A|-3------3---------|-3------3---------|-2-----2-------|-2-----2---------|
E|------------------|------------------|---------------|-----------------|
		Today and every day...						
e|------------------|------------------|---------------|-----------------|
B|-1--------1-------|-1--------1-------|-1-------1-----|-1-------1-------|
G|------0--------0--|------0--------0--|-----0-------0-|-----0-------0---|
D|----2--------2----|----2--------2----|---0-------0---|---3-------3-----| 
A|-0------0---------|-0------0---------|---------------|-----------------|
E|------------------|------------------|-3----3--------|-1----1----------|  
		Marry me..
e|------------------|------------------|---------------|-----------------|
B|-1--------1-------|-1--------1-------|-1-------1-----|-3-------3-------|
G|------0--------0--|------0--------0--|-----0-------0-|-----0-------0---|
D|----2--------2----|----2--------2----|---0-------0---|---0-------0-----|
A|-3------3---------|-3------3---------|-2-----2-------|-2-----2---------|
E|------------------|------------------|---------------|-----------------|
		If I ever get the nerve to say hello in this cafe..
e|------------------|------------------|---------------|-----------------|
B|-1--------1-------|-1--------1-------|-1-------1-----|-1-------1-------|
G|------0--------0--|------0--------0--|-----0-------0-|-----0-------0---|
D|----2--------2----|----2--------2----|---0-------0---|---3-------3-----| 
A|-0------0---------|-0------0---------|---------------|-----------------|
E|------------------|------------------|-3----3--------|-1----1----------|   
			Say you will
e|------------------|------------------|----------------|----------------|
B|-1--------1-------|-1--------1-------|-1-------1------|-1-------1------|
G|------0--------0--|------0--------0--|-----0-------0--|-----0-------0--|
D|----2--------2----|----2--------2----|---3-------3----|---3-------3----|
A|------------------|------------------|----------------|----------------|
E|-0------0---------|-0------0---------|-1-----1--------|-1-----1--------|
			Say you will
e|------------------|------------------|----------------|----------------|
B|-1--------1-------|-1--------1-------|-1-------1------|-1--------------|
G|------0--------0--|------0--------0--|-----0-------0--|----------------|
D|----2--------2----|----2--------2----|---3-------3----|------REST------|
A|------------------|------------------|----------------|----------------|
E|-0------0---------|-0------0---------|-1-----1--------|-1--------------|

----------------------------Verse----------------------------------------
		Together can never be close enough for me...

		To feel like I am close enough to you...					
 

		You wear white and I'll wear out the words I love you...

		And you're beautiful...			

-----------------------------------CHORUS--------------------------------
		Marry me
		
		Today and everyday
		
		Marry me
		
		If I ever get the nerve to say hello in this cafe

		Say you will
		
		Say you will

Bridge
		Promise me you'll always be...
e|------------------|------------------|---------------|-----------------| 
B|-1--------1-------|-1--------1-------|-1-------1-----|-1-------1-------|
G|------0--------0--|------0--------0--|-----0-------0-|-----0-------0---|
D|----3--------3----|----3--------3----|---3-------3---|---3-------3-----|
A|-1------1---------|-1------1---------|-0-----0-------|-0-----0---------|
E|------------------|------------------|---------------|-----------------|  
		Happy by my side...					    
e|------------------|------------------|---------------|-----------------| 
B|-1--------1-------|-1--------1-------|-1-------1-----|-1--------1------|
G|------0--------0--|------0--------0--|-----0-------0-|------0--------0-|
D|----2--------2----|----2--------2----|---0-------0---|----0--------0---|
A|-3------3---------|-3------3---------|-2-----2-------|-2------2--------|
E|------------------|------------------|---------------|-----------------| 
		I promise to sing to you...
e|------------------|------------------|---------------|-----------------| 
B|-1--------1-------|-1--------1-------|1-------1------|-1-------1-------|
G|------0--------0--|------0--------0--|----0-------0--|-----0-------0---|
D|----3--------3----|----3--------3----|--3-------3----|---3-------3-----|
A|-1------1---------|-1------1---------|0-----0--------|-0-----0---------|
E|------------------|------------------|---------------|-----------------|  
		When all the music dies...
e|------------------|------------------|---------------|-----------------| 
B|-1--------1-------|-1--------1-------|1-------1------|-1-------1-------|
G|------0--------0--|------0--------0--|----0-------0--|-----0-------0---|
D|----2--------2----|----2--------2----|--0-------0----|---0-------0-----|
A|-3------3---------|-3------3---------|2-----2--------|-2-----2---------|
E|------------------|------------------|---------------|-----------------| 

e|------------------|------------------|---------------|-----------------|
B|-1--------1-------|-1--------1-------|-1------1------|-1---------------|
G|------0--------0--|------0--------0--|-----0------0--|-----------------|
D|----2--------2----|----2--------2----|---3------3----|-----REST--------|
A|------------------|------------------|---------------|-----------------|
E|-0------0---------|-0------0---------|-1-----1-------|-1---------------|

--------------------------------CHORUS-----------------------------------
		And marry me
		
		Today and everyday
		
		Marry me
		
		If I ever get the nerve to say hello in this cafe

		Say you will
		
		Say you will
		
		Marry me

Outro
e|------------------|------------------|----------------|----------------|
B|-1--------1-------|-1--------1-------|-1-------1------|-1-------1------|
G|------0--------0--|------0--------0--|-----0-------0--|-----0-------0--|
D|----2--------2----|----2--------2----|---3-------3----|---3-------3----|
A|------------------|------------------|----------------|----------------|
E|-0------0---------|-0------0---------|-1-----1--------|-1-----1--------|

e|------------------|------------------|----------------|----------------|
B|-1--------1-------|-1--------1-------|-1-------1------|-1--------------|
G|------0--------0--|------0--------0--|-----0-------0--|----------------|
D|----2--------2----|----2--------2----|---3-------3----|------REST------|
A|------------------|------------------|----------------|----------------|
E|-0------0---------|-0------0---------|-1-----1--------|-1--------------|

Tap to rate this tab
 
# A B C D E F G H I J K L M N O P Q R S T U V W X Y Z