Train - Hey Soul Sister tab

Artist: Train
Song: Hey Soul Sister
(capo 4th fret)


 Verse
  E E S S S S E E S S S S E E S S S S E E S S S S
|-0-0-0-0-0-0-0-0-0-0-0-0-3-3-3-3-3-3-3-3-3-3-3-3----|
|-1-1-1-1-1-1-1-1-1-1-1-1-0-0-0-0-0-0-0-0-0-0-0-0----|
|-0-0-0-0-0-0-0-0-0-0-0-0-0-0-0-0-0-0-0-0-0-0-0-0----|
|-2-2-2-2-2-2-2-2-2-2-2-2-0-0-0-0-0-0-0-0-0-0-0-0----|
|-3-3-3-3-3-3-3-3-3-3-3-3-2-2-2-2-2-2-2-2-2-2-2-2----|
|-------------------------3-3-3-3-3-3-3-3-3-3-3-3----|


  E E S S S S E E S S S S E E S S S S E E S S S S
|-0-0-0-0-0-0-0-0-0-0-0-0-1-1-1-1-1-1-1-1-1-1-1-1----|
|-1-1-1-1-1-1-1-1-1-1-1-1-1-1-1-1-1-1-1-1-1-1-1-1----|
|-2-2-2-2-2-2-2-2-2-2-2-2-2-2-2-2-2-2-2-2-2-2-2-2----|
|-2-2-2-2-2-2-2-2-2-2-2-2-3-3-3-3-3-3-3-3-3-3-3-3----|
|-0-0-0-0-0-0-0-0-0-0-0-0-3-3-3-3-3-3-3-3-3-3-3-3----|
|-------------------------1-1-1-1-1-1-1-1-1-1-1-1----|


  E E S S S S E E S S S S E E S S S S E E S S S S
|-0-0-0-0-0-0-0-0-0-0-0-0-3-3-3-3-3-3-3-3-3-3-3-3----|
|-1-1-1-1-1-1-1-1-1-1-1-1-0-0-0-0-0-0-0-0-0-0-0-0----|
|-0-0-0-0-0-0-0-0-0-0-0-0-0-0-0-0-0-0-0-0-0-0-0-0----|
|-2-2-2-2-2-2-2-2-2-2-2-2-0-0-0-0-0-0-0-0-0-0-0-0----|
|-3-3-3-3-3-3-3-3-3-3-3-3-2-2-2-2-2-2-2-2-2-2-2-2----|
|-------------------------3-3-3-3-3-3-3-3-3-3-3-3----|


  E E S S S S E E S S S S E E S S S S E E S S S S
|-0-0-0-0-0-0-0-0-0-0-0-0-1-1-1-1-1-1-1-1-1-1-1-1----|
|-1-1-1-1-1-1-1-1-1-1-1-1-1-1-1-1-1-1-1-1-1-1-1-1----|
|-2-2-2-2-2-2-2-2-2-2-2-2-2-2-2-2-2-2-2-2-2-2-2-2----|
|-2-2-2-2-2-2-2-2-2-2-2-2-3-3-3-3-3-3-3-3-3-3-3-3----|
|-0-0-0-0-0-0-0-0-0-0-0-0-3-3-3-3-3-3-3-3-3-3-3-3----|
|-------------------------1-1-1-1-1-1-1-1-1-1-1-1----|


  E E S S S S E E S S S S E E S S S S E E S S S S
|-0-0-0-0-0-0-0-0-0-0-0-0-3-3-3-3-3-3-3-3-3-3-3-3----|
|-1-1-1-1-1-1-1-1-1-1-1-1-0-0-0-0-0-0-0-0-0-0-0-0----|
|-0-0-0-0-0-0-0-0-0-0-0-0-0-0-0-0-0-0-0-0-0-0-0-0----|
|-2-2-2-2-2-2-2-2-2-2-2-2-0-0-0-0-0-0-0-0-0-0-0-0----|
|-3-3-3-3-3-3-3-3-3-3-3-3-2-2-2-2-2-2-2-2-2-2-2-2----|
|-------------------------3-3-3-3-3-3-3-3-3-3-3-3----|


  E E S S S S E E S S S S E E S S S S E E S S S S
|-0-0-0-0-0-0-0-0-0-0-0-0-1-1-1-1-1-1-3-3-3-3-3-3----|
|-1-1-1-1-1-1-1-1-1-1-1-1-1-1-1-1-1-1-0-0-0-0-0-0----|
|-2-2-2-2-2-2-2-2-2-2-2-2-2-2-2-2-2-2-0-0-0-0-0-0----|
|-2-2-2-2-2-2-2-2-2-2-2-2-3-3-3-3-3-3-0-0-0-0-0-0----|
|-0-0-0-0-0-0-0-0-0-0-0-0-3-3-3-3-3-3-2-2-2-2-2-2----|
|-------------------------1-1-1-1-1-1-3-3-3-3-3-3----|


  E E S S S S E E S S S S E E S S S S E E S S S S
|-0-0-0-0-0-0-0-0-0-0-0-0-3-3-3-3-3-3-3-3-3-3-3-3----|
|-1-1-1-1-1-1-1-1-1-1-1-1-0-0-0-0-0-0-0-0-0-0-0-0----|
|-0-0-0-0-0-0-0-0-0-0-0-0-0-0-0-0-0-0-0-0-0-0-0-0----|
|-2-2-2-2-2-2-2-2-2-2-2-2-0-0-0-0-0-0-0-0-0-0-0-0----|
|-3-3-3-3-3-3-3-3-3-3-3-3-2-2-2-2-2-2-2-2-2-2-2-2----|
|-------------------------3-3-3-3-3-3-3-3-3-3-3-3----|


  E E S S S S E E S S S S E E S S S S E E S S S S
|-0-0-0-0-0-0-0-0-0-0-0-0-1-1-1-1-1-1-1-1-1-1-1-1----|
|-1-1-1-1-1-1-1-1-1-1-1-1-1-1-1-1-1-1-1-1-1-1-1-1----|
|-2-2-2-2-2-2-2-2-2-2-2-2-2-2-2-2-2-2-2-2-2-2-2-2----|
|-2-2-2-2-2-2-2-2-2-2-2-2-3-3-3-3-3-3-3-3-3-3-3-3----|
|-0-0-0-0-0-0-0-0-0-0-0-0-3-3-3-3-3-3-3-3-3-3-3-3----|
|-------------------------1-1-1-1-1-1-1-1-1-1-1-1----|


  E E S S S S E E S S S S E E S S S S E E S S S S
|-0-0-0-0-0-0-0-0-0-0-0-0-3-3-3-3-3-3-3-3-3-3-3-3----|
|-1-1-1-1-1-1-1-1-1-1-1-1-0-0-0-0-0-0-0-0-0-0-0-0----|
|-0-0-0-0-0-0-0-0-0-0-0-0-0-0-0-0-0-0-0-0-0-0-0-0----|
|-2-2-2-2-2-2-2-2-2-2-2-2-0-0-0-0-0-0-0-0-0-0-0-0----|
|-3-3-3-3-3-3-3-3-3-3-3-3-2-2-2-2-2-2-2-2-2-2-2-2----|
|-------------------------3-3-3-3-3-3-3-3-3-3-3-3----|


  E E S S S S E E S S S S E E S S S S E E S S S S
|-0-0-0-0-0-0-0-0-0-0-0-0-1-1-1-1-1-1-3-3-3-3-3-3----|
|-1-1-1-1-1-1-1-1-1-1-1-1-1-1-1-1-1-1-0-0-0-0-0-0----|
|-2-2-2-2-2-2-2-2-2-2-2-2-2-2-2-2-2-2-0-0-0-0-0-0----|
|-2-2-2-2-2-2-2-2-2-2-2-2-3-3-3-3-3-3-0-0-0-0-0-0----|
|-0-0-0-0-0-0-0-0-0-0-0-0-3-3-3-3-3-3-2-2-2-2-2-2----|
|-------------------------1-1-1-1-1-1-3-3-3-3-3-3----|


 Chorus
  E E S S S S E E S S S S E E S S S S E E E E
|-1-1-1-1-1-1-1-1-1-1-1-1-3-3-3-3-3-3-0-0-3-3----|
|-1-1-1-1-1-1-1-1-1-1-1-1-0-0-0-0-0-0-1-1-0-0----|
|-2-2-2-2-2-2-2-2-2-2-2-2-0-0-0-0-0-0-0-0-0-0----|
|-3-3-3-3-3-3-3-3-3-3-3-3-0-0-0-0-0-0-2-2-0-0----|
|-3-3-3-3-3-3-3-3-3-3-3-3-2-2-2-2-2-2-3-3-2-2----|
|-1-1-1-1-1-1-1-1-1-1-1-1-3-3-3-3-3-3-----3-3----|


  E E S S S S E E S S S S E E S S S S E E E E
|-1-1-1-1-1-1-1-1-1-1-1-1-3-3-3-3-3-3-0-0-3-3----|
|-1-1-1-1-1-1-1-1-1-1-1-1-0-0-0-0-0-0-1-1-0-0----|
|-2-2-2-2-2-2-2-2-2-2-2-2-0-0-0-0-0-0-0-0-0-0----|
|-3-3-3-3-3-3-3-3-3-3-3-3-0-0-0-0-0-0-2-2-0-0----|
|-3-3-3-3-3-3-3-3-3-3-3-3-2-2-2-2-2-2-3-3-2-2----|
|-1-1-1-1-1-1-1-1-1-1-1-1-3-3-3-3-3-3-----3-3----|


  E E S S S S E E S S S S E E S S S S E E E E
|-1-1-1-1-1-1-1-1-1-1-1-1-3-3-3-3-3-3-0-0-3-3----|
|-1-1-1-1-1-1-1-1-1-1-1-1-0-0-0-0-0-0-1-1-0-0----|
|-2-2-2-2-2-2-2-2-2-2-2-2-0-0-0-0-0-0-0-0-0-0----|
|-3-3-3-3-3-3-3-3-3-3-3-3-0-0-0-0-0-0-2-2-0-0----|
|-3-3-3-3-3-3-3-3-3-3-3-3-2-2-2-2-2-2-3-3-2-2----|
|-1-1-1-1-1-1-1-1-1-1-1-1-3-3-3-3-3-3-----3-3----|


  E E S S S S E E S S S S E E S S S S H
|-1-1-1-1-1-1-1-1-1-1-1-1-3-3-3-3-3-3-3----|
|-1-1-1-1-1-1-1-1-1-1-1-1-0-0-0-0-0-0-0----|
|-2-2-2-2-2-2-2-2-2-2-2-2-0-0-0-0-0-0-0----|
|-3-3-3-3-3-3-3-3-3-3-3-3-0-0-0-0-0-0-0----|
|-3-3-3-3-3-3-3-3-3-3-3-3-2-2-2-2-2-2-2----|
|-1-1-1-1-1-1-1-1-1-1-1-1-3-3-3-3-3-3-3----|


 Verse
  E E S S S S E E S S S S E E S S S S E E S S S S
|-0-0-0-0-0-0-0-0-0-0-0-0-3-3-3-3-3-3-3-3-3-3-3-3----|
|-1-1-1-1-1-1-1-1-1-1-1-1-0-0-0-0-0-0-0-0-0-0-0-0----|
|-0-0-0-0-0-0-0-0-0-0-0-0-0-0-0-0-0-0-0-0-0-0-0-0----|
|-2-2-2-2-2-2-2-2-2-2-2-2-0-0-0-0-0-0-0-0-0-0-0-0----|
|-3-3-3-3-3-3-3-3-3-3-3-3-2-2-2-2-2-2-2-2-2-2-2-2----|
|-------------------------3-3-3-3-3-3-3-3-3-3-3-3----|


  E E S S S S E E S S S S E E S S S S E E S S S S
|-0-0-0-0-0-0-0-0-0-0-0-0-1-1-1-1-1-1-1-1-1-1-1-1----|
|-1-1-1-1-1-1-1-1-1-1-1-1-1-1-1-1-1-1-1-1-1-1-1-1----|
|-2-2-2-2-2-2-2-2-2-2-2-2-2-2-2-2-2-2-2-2-2-2-2-2----|
|-2-2-2-2-2-2-2-2-2-2-2-2-3-3-3-3-3-3-3-3-3-3-3-3----|
|-0-0-0-0-0-0-0-0-0-0-0-0-3-3-3-3-3-3-3-3-3-3-3-3----|
|-------------------------1-1-1-1-1-1-1-1-1-1-1-1----|


  E E S S S S E E S S S S E E S S S S E E S S S S
|-0-0-0-0-0-0-0-0-0-0-0-0-3-3-3-3-3-3-3-3-3-3-3-3----|
|-1-1-1-1-1-1-1-1-1-1-1-1-0-0-0-0-0-0-0-0-0-0-0-0----|
|-0-0-0-0-0-0-0-0-0-0-0-0-0-0-0-0-0-0-0-0-0-0-0-0----|
|-2-2-2-2-2-2-2-2-2-2-2-2-0-0-0-0-0-0-0-0-0-0-0-0----|
|-3-3-3-3-3-3-3-3-3-3-3-3-2-2-2-2-2-2-2-2-2-2-2-2----|
|-------------------------3-3-3-3-3-3-3-3-3-3-3-3----|


  E E S S S S E E S S S S E E S S S S E E S S S S
|-0-0-0-0-0-0-0-0-0-0-0-0-1-1-1-1-1-1-1-1-1-1-1-1----|
|-1-1-1-1-1-1-1-1-1-1-1-1-1-1-1-1-1-1-1-1-1-1-1-1----|
|-2-2-2-2-2-2-2-2-2-2-2-2-2-2-2-2-2-2-2-2-2-2-2-2----|
|-2-2-2-2-2-2-2-2-2-2-2-2-3-3-3-3-3-3-3-3-3-3-3-3----|
|-0-0-0-0-0-0-0-0-0-0-0-0-3-3-3-3-3-3-3-3-3-3-3-3----|
|-------------------------1-1-1-1-1-1-1-1-1-1-1-1----|


  E E S S S S E E S S S S E E S S S S E E S S S S
|-0-0-0-0-0-0-0-0-0-0-0-0-3-3-3-3-3-3-3-3-3-3-3-3----|
|-1-1-1-1-1-1-1-1-1-1-1-1-0-0-0-0-0-0-0-0-0-0-0-0----|
|-0-0-0-0-0-0-0-0-0-0-0-0-0-0-0-0-0-0-0-0-0-0-0-0----|
|-2-2-2-2-2-2-2-2-2-2-2-2-0-0-0-0-0-0-0-0-0-0-0-0----|
|-3-3-3-3-3-3-3-3-3-3-3-3-2-2-2-2-2-2-2-2-2-2-2-2----|
|-------------------------3-3-3-3-3-3-3-3-3-3-3-3----|


  E E S S S S E E S S S S E E S S S S E E S S S S
|-0-0-0-0-0-0-0-0-0-0-0-0-1-1-1-1-1-1-3-3-3-3-3-3----|
|-1-1-1-1-1-1-1-1-1-1-1-1-1-1-1-1-1-1-0-0-0-0-0-0----|
|-2-2-2-2-2-2-2-2-2-2-2-2-2-2-2-2-2-2-0-0-0-0-0-0----|
|-2-2-2-2-2-2-2-2-2-2-2-2-3-3-3-3-3-3-0-0-0-0-0-0----|
|-0-0-0-0-0-0-0-0-0-0-0-0-3-3-3-3-3-3-2-2-2-2-2-2----|
|-------------------------1-1-1-1-1-1-3-3-3-3-3-3----|


  E E S S S S E E S S S S E E S S S S E E S S S S
|-0-0-0-0-0-0-0-0-0-0-0-0-3-3-3-3-3-3-3-3-3-3-3-3----|
|-1-1-1-1-1-1-1-1-1-1-1-1-0-0-0-0-0-0-0-0-0-0-0-0----|
|-0-0-0-0-0-0-0-0-0-0-0-0-0-0-0-0-0-0-0-0-0-0-0-0----|
|-2-2-2-2-2-2-2-2-2-2-2-2-0-0-0-0-0-0-0-0-0-0-0-0----|
|-3-3-3-3-3-3-3-3-3-3-3-3-2-2-2-2-2-2-2-2-2-2-2-2----|
|-------------------------3-3-3-3-3-3-3-3-3-3-3-3----|


  E E S S S S E E S S S S E E S S S S E E S S S S
|-0-0-0-0-0-0-0-0-0-0-0-0-1-1-1-1-1-1-1-1-1-1-1-1----|
|-1-1-1-1-1-1-1-1-1-1-1-1-1-1-1-1-1-1-1-1-1-1-1-1----|
|-2-2-2-2-2-2-2-2-2-2-2-2-2-2-2-2-2-2-2-2-2-2-2-2----|
|-2-2-2-2-2-2-2-2-2-2-2-2-3-3-3-3-3-3-3-3-3-3-3-3----|
|-0-0-0-0-0-0-0-0-0-0-0-0-3-3-3-3-3-3-3-3-3-3-3-3----|
|-------------------------1-1-1-1-1-1-1-1-1-1-1-1----|


  E E S S S S E E S S S S E E S S S S E E S S S S
|-0-0-0-0-0-0-0-0-0-0-0-0-3-3-3-3-3-3-3-3-3-3-3-3----|
|-1-1-1-1-1-1-1-1-1-1-1-1-0-0-0-0-0-0-0-0-0-0-0-0----|
|-0-0-0-0-0-0-0-0-0-0-0-0-0-0-0-0-0-0-0-0-0-0-0-0----|
|-2-2-2-2-2-2-2-2-2-2-2-2-0-0-0-0-0-0-0-0-0-0-0-0----|
|-3-3-3-3-3-3-3-3-3-3-3-3-2-2-2-2-2-2-2-2-2-2-2-2----|
|-------------------------3-3-3-3-3-3-3-3-3-3-3-3----|


  E E S S S S E E S S S S E E S S S S E E S S S S
|-0-0-0-0-0-0-0-0-0-0-0-0-1-1-1-1-1-1-3-3-3-3-3-3----|
|-1-1-1-1-1-1-1-1-1-1-1-1-1-1-1-1-1-1-0-0-0-0-0-0----|
|-2-2-2-2-2-2-2-2-2-2-2-2-2-2-2-2-2-2-0-0-0-0-0-0----|
|-2-2-2-2-2-2-2-2-2-2-2-2-3-3-3-3-3-3-0-0-0-0-0-0----|
|-0-0-0-0-0-0-0-0-0-0-0-0-3-3-3-3-3-3-2-2-2-2-2-2----|
|-------------------------1-1-1-1-1-1-3-3-3-3-3-3----|


 Chorus
  E E S S S S E E S S S S E E S S S S E E E E
|-1-1-1-1-1-1-1-1-1-1-1-1-3-3-3-3-3-3-0-0-3-3----|
|-1-1-1-1-1-1-1-1-1-1-1-1-0-0-0-0-0-0-1-1-0-0----|
|-2-2-2-2-2-2-2-2-2-2-2-2-0-0-0-0-0-0-0-0-0-0----|
|-3-3-3-3-3-3-3-3-3-3-3-3-0-0-0-0-0-0-2-2-0-0----|
|-3-3-3-3-3-3-3-3-3-3-3-3-2-2-2-2-2-2-3-3-2-2----|
|-1-1-1-1-1-1-1-1-1-1-1-1-3-3-3-3-3-3-----3-3----|


  E E S S S S E E S S S S E E S S S S E E E E
|-1-1-1-1-1-1-1-1-1-1-1-1-3-3-3-3-3-3-0-0-3-3----|
|-1-1-1-1-1-1-1-1-1-1-1-1-0-0-0-0-0-0-1-1-0-0----|
|-2-2-2-2-2-2-2-2-2-2-2-2-0-0-0-0-0-0-0-0-0-0----|
|-3-3-3-3-3-3-3-3-3-3-3-3-0-0-0-0-0-0-2-2-0-0----|
|-3-3-3-3-3-3-3-3-3-3-3-3-2-2-2-2-2-2-3-3-2-2----|
|-1-1-1-1-1-1-1-1-1-1-1-1-3-3-3-3-3-3-----3-3----|


  E E S S S S E E S S S S E E S S S S E E E E
|-1-1-1-1-1-1-1-1-1-1-1-1-3-3-3-3-3-3-0-0-3-3----|
|-1-1-1-1-1-1-1-1-1-1-1-1-0-0-0-0-0-0-1-1-0-0----|
|-2-2-2-2-2-2-2-2-2-2-2-2-0-0-0-0-0-0-0-0-0-0----|
|-3-3-3-3-3-3-3-3-3-3-3-3-0-0-0-0-0-0-2-2-0-0----|
|-3-3-3-3-3-3-3-3-3-3-3-3-2-2-2-2-2-2-3-3-2-2----|
|-1-1-1-1-1-1-1-1-1-1-1-1-3-3-3-3-3-3-----3-3----|


  E E S S S S E E S S S S E E S S S S E E S S S S
|-1-1-1-1-1-1-1-1-1-1-1-1-3-3-3-3-3-3-3-3-3-3-3-3----|
|-1-1-1-1-1-1-1-1-1-1-1-1-0-0-0-0-0-0-0-0-0-0-0-0----|
|-2-2-2-2-2-2-2-2-2-2-2-2-0-0-0-0-0-0-0-0-0-0-0-0----|
|-3-3-3-3-3-3-3-3-3-3-3-3-0-0-0-0-0-0-0-0-0-0-0-0----|
|-3-3-3-3-3-3-3-3-3-3-3-3-2-2-2-2-2-2-2-2-2-2-2-2----|
|-1-1-1-1-1-1-1-1-1-1-1-1-3-3-3-3-3-3-3-3-3-3-3-3----|


 Verse
  E E S S S S E E S S S S E E S S S S E E S S S S
|-0-0-0-0-0-0-0-0-0-0-0-0-3-3-3-3-3-3-3-3-3-3-3-3----|
|-1-1-1-1-1-1-1-1-1-1-1-1-0-0-0-0-0-0-0-0-0-0-0-0----|
|-0-0-0-0-0-0-0-0-0-0-0-0-0-0-0-0-0-0-0-0-0-0-0-0----|
|-2-2-2-2-2-2-2-2-2-2-2-2-0-0-0-0-0-0-0-0-0-0-0-0----|
|-3-3-3-3-3-3-3-3-3-3-3-3-2-2-2-2-2-2-2-2-2-2-2-2----|
|-------------------------3-3-3-3-3-3-3-3-3-3-3-3----|


  E E S S S S E E S S S S E E S S S S E E S S S S
|-0-0-0-0-0-0-0-0-0-0-0-0-1-1-1-1-1-1-1-1-1-1-1-1----|
|-1-1-1-1-1-1-1-1-1-1-1-1-1-1-1-1-1-1-1-1-1-1-1-1----|
|-2-2-2-2-2-2-2-2-2-2-2-2-2-2-2-2-2-2-2-2-2-2-2-2----|
|-2-2-2-2-2-2-2-2-2-2-2-2-3-3-3-3-3-3-3-3-3-3-3-3----|
|-0-0-0-0-0-0-0-0-0-0-0-0-3-3-3-3-3-3-3-3-3-3-3-3----|
|-------------------------1-1-1-1-1-1-1-1-1-1-1-1----|


  E E S S S S E E S S S S E E S S S S E E S S S S
|-0-0-0-0-0-0-0-0-0-0-0-0-3-3-3-3-3-3-3-3-3-3-3-3----|
|-1-1-1-1-1-1-1-1-1-1-1-1-0-0-0-0-0-0-0-0-0-0-0-0----|
|-0-0-0-0-0-0-0-0-0-0-0-0-0-0-0-0-0-0-0-0-0-0-0-0----|
|-2-2-2-2-2-2-2-2-2-2-2-2-0-0-0-0-0-0-0-0-0-0-0-0----|
|-3-3-3-3-3-3-3-3-3-3-3-3-2-2-2-2-2-2-2-2-2-2-2-2----|
|-------------------------3-3-3-3-3-3-3-3-3-3-3-3----|


  E E S S S S E E S S S S E E S S S S E E S S S S
|-0-0-0-0-0-0-0-0-0-0-0-0-1-1-1-1-1-1-3-3-3-3-3-3----|
|-1-1-1-1-1-1-1-1-1-1-1-1-1-1-1-1-1-1-0-0-0-0-0-0----|
|-2-2-2-2-2-2-2-2-2-2-2-2-2-2-2-2-2-2-0-0-0-0-0-0----|
|-2-2-2-2-2-2-2-2-2-2-2-2-3-3-3-3-3-3-0-0-0-0-0-0----|
|-0-0-0-0-0-0-0-0-0-0-0-0-3-3-3-3-3-3-2-2-2-2-2-2----|
|-------------------------1-1-1-1-1-1-3-3-3-3-3-3----|


 Chorus
  E E S S S S E E S S S S E E S S S S E E E E
|-1-1-1-1-1-1-1-1-1-1-1-1-3-3-3-3-3-3-0-0-3-3----|
|-1-1-1-1-1-1-1-1-1-1-1-1-0-0-0-0-0-0-1-1-0-0----|
|-2-2-2-2-2-2-2-2-2-2-2-2-0-0-0-0-0-0-0-0-0-0----|
|-3-3-3-3-3-3-3-3-3-3-3-3-0-0-0-0-0-0-2-2-0-0----|
|-3-3-3-3-3-3-3-3-3-3-3-3-2-2-2-2-2-2-3-3-2-2----|
|-1-1-1-1-1-1-1-1-1-1-1-1-3-3-3-3-3-3-----3-3----|


  E E S S S S E E S S S S E E S S S S E E E E
|-1-1-1-1-1-1-1-1-1-1-1-1-3-3-3-3-3-3-0-0-3-3----|
|-1-1-1-1-1-1-1-1-1-1-1-1-0-0-0-0-0-0-1-1-0-0----|
|-2-2-2-2-2-2-2-2-2-2-2-2-0-0-0-0-0-0-0-0-0-0----|
|-3-3-3-3-3-3-3-3-3-3-3-3-0-0-0-0-0-0-2-2-0-0----|
|-3-3-3-3-3-3-3-3-3-3-3-3-2-2-2-2-2-2-3-3-2-2----|
|-1-1-1-1-1-1-1-1-1-1-1-1-3-3-3-3-3-3-----3-3----|


  E E S S S S E E S S S S E E S S S S E E E E
|-1-1-1-1-1-1-1-1-1-1-1-1-3-3-3-3-3-3-0-0-3-3----|
|-1-1-1-1-1-1-1-1-1-1-1-1-0-0-0-0-0-0-1-1-0-0----|
|-2-2-2-2-2-2-2-2-2-2-2-2-0-0-0-0-0-0-0-0-0-0----|
|-3-3-3-3-3-3-3-3-3-3-3-3-0-0-0-0-0-0-2-2-0-0----|
|-3-3-3-3-3-3-3-3-3-3-3-3-2-2-2-2-2-2-3-3-2-2----|
|-1-1-1-1-1-1-1-1-1-1-1-1-3-3-3-3-3-3-----3-3----|


  E E S S S S E E S S S S E E S S S S E E E E
|-1-1-1-1-1-1-1-1-1-1-1-1-3-3-3-3-3-3-0-0-3-3----|
|-1-1-1-1-1-1-1-1-1-1-1-1-0-0-0-0-0-0-1-1-0-0----|
|-2-2-2-2-2-2-2-2-2-2-2-2-0-0-0-0-0-0-0-0-0-0----|
|-3-3-3-3-3-3-3-3-3-3-3-3-0-0-0-0-0-0-2-2-0-0----|
|-3-3-3-3-3-3-3-3-3-3-3-3-2-2-2-2-2-2-3-3-2-2----|
|-1-1-1-1-1-1-1-1-1-1-1-1-3-3-3-3-3-3-----3-3----|


  E E S S S S E E S S S S E E S S S S E E E E
|-1-1-1-1-1-1-1-1-1-1-1-1-3-3-3-3-3-3-0-0-3-3----|
|-1-1-1-1-1-1-1-1-1-1-1-1-0-0-0-0-0-0-1-1-0-0----|
|-2-2-2-2-2-2-2-2-2-2-2-2-0-0-0-0-0-0-0-0-0-0----|
|-3-3-3-3-3-3-3-3-3-3-3-3-0-0-0-0-0-0-2-2-0-0----|
|-3-3-3-3-3-3-3-3-3-3-3-3-2-2-2-2-2-2-3-3-2-2----|
|-1-1-1-1-1-1-1-1-1-1-1-1-3-3-3-3-3-3-----3-3----|


  E E S S S S E E S S S S E E S S S S H
|-1-1-1-1-1-1-1-1-1-1-1-1-3-3-3-3-3-3-3----|
|-1-1-1-1-1-1-1-1-1-1-1-1-0-0-0-0-0-0-0----|
|-2-2-2-2-2-2-2-2-2-2-2-2-0-0-0-0-0-0-0----|
|-3-3-3-3-3-3-3-3-3-3-3-3-0-0-0-0-0-0-0----|
|-3-3-3-3-3-3-3-3-3-3-3-3-2-2-2-2-2-2-2----|
|-1-1-1-1-1-1-1-1-1-1-1-1-3-3-3-3-3-3-3----|


 Ending
  E E S S S S E E S S S S E E S S S S E E S S S S
|-0-0-0-0-0-0-0-0-0-0-0-0-3-3-3-3-3-3-3-3-3-3-3-3----|
|-1-1-1-1-1-1-1-1-1-1-1-1-0-0-0-0-0-0-0-0-0-0-0-0----|
|-0-0-0-0-0-0-0-0-0-0-0-0-0-0-0-0-0-0-0-0-0-0-0-0----|
|-2-2-2-2-2-2-2-2-2-2-2-2-0-0-0-0-0-0-0-0-0-0-0-0----|
|-3-3-3-3-3-3-3-3-3-3-3-3-2-2-2-2-2-2-2-2-2-2-2-2----|
|-------------------------3-3-3-3-3-3-3-3-3-3-3-3----|


  E E S S S S E E S S S S E E S S S S E E S S S S
|-0-0-0-0-0-0-0-0-0-0-0-0-1-1-1-1-1-1-3-3-3-3-3-3----|
|-1-1-1-1-1-1-1-1-1-1-1-1-1-1-1-1-1-1-0-0-0-0-0-0----|
|-2-2-2-2-2-2-2-2-2-2-2-2-2-2-2-2-2-2-0-0-0-0-0-0----|
|-2-2-2-2-2-2-2-2-2-2-2-2-3-3-3-3-3-3-0-0-0-0-0-0----|
|-0-0-0-0-0-0-0-0-0-0-0-0-3-3-3-3-3-3-2-2-2-2-2-2----|
|-------------------------1-1-1-1-1-1-3-3-3-3-3-3----|


  E E S S S S E E S S S S E E S S S S E E S S S S
|-0-0-0-0-0-0-0-0-0-0-0-0-3-3-3-3-3-3-3-3-3-3-3-3----|
|-1-1-1-1-1-1-1-1-1-1-1-1-0-0-0-0-0-0-0-0-0-0-0-0----|
|-0-0-0-0-0-0-0-0-0-0-0-0-0-0-0-0-0-0-0-0-0-0-0-0----|
|-2-2-2-2-2-2-2-2-2-2-2-2-0-0-0-0-0-0-0-0-0-0-0-0----|
|-3-3-3-3-3-3-3-3-3-3-3-3-2-2-2-2-2-2-2-2-2-2-2-2----|
|-------------------------3-3-3-3-3-3-3-3-3-3-3-3----|


  E E S S S S E E S S S S E E S S S S H
|-0-0-0-0-0-0-0-0-0-0-0-0-1-1-1-1-1-1-3----|
|-1-1-1-1-1-1-1-1-1-1-1-1-1-1-1-1-1-1-0----|
|-2-2-2-2-2-2-2-2-2-2-2-2-2-2-2-2-2-2-0----|
|-2-2-2-2-2-2-2-2-2-2-2-2-3-3-3-3-3-3-0----|
|-0-0-0-0-0-0-0-0-0-0-0-0-3-3-3-3-3-3-2----|
|-------------------------1-1-1-1-1-1-3----|


  W
|-0----|
|-1----|
|-0----|
|-2----|
|-3----|
|------|


www.guitarstars.biz
Tap to rate this tab
 
# A B C D E F G H I J K L M N O P Q R S T U V W X Y Z