Song name
# A B C D E F G H I J K L M N O P Q R S T U V W X Y Z

Train - Save Me San Francisco tab

e--------5---5----5----5-----------------------------------------5--5--5--5--5-----------|
B--------7---8----7----8-----------------------------------------7--7--8--7--8-----------|
G--------7---7----7----7-----------------------------------------7--7--7--7--7-----------|
D--------7---7----7----7-----------------------------------------7--7--7--7--7-----------|
A--------5---5----5----5-------5--5--7--5--7---7--7--9--7--9-----5--5--5--5--5-----------|
E------------------------------3--3--3--3--3---5--5--5--5--5-----------------------------|

It's played through the verse

For pre-chorus there are chords : Bm A G ( "I drove into Seattle rain..." )

Here's that little lick played before chorus:

e------------------------------------------------|
B----8s10---10--10--8--8s10--10--10--10--8-------|
G----9s11---11--11--9--9s11--11--11--11--9-------|
D------------------------------------------------|
A------------------------------------------------|
E------------------------------------------------|



Chords for chorus: D G A D x2


Good luck! ;)


Tab by GuitarmanPL   http://www.youtube.com/user/guitarmanPL
Tap to rate this tab
# A B C D E F G H I J K L M N O P Q R S T U V W X Y Z