Song name
# A B C D E F G H I J K L M N O P Q R S T U V W X Y Z

Train - Feels Good At First tab

----------------------------------------------------------------------------
                     FEELS GOOD AT FIRST - TRAIN
----------------------------------------------------------------------------
Tabbed by: stokerjd
Email: stokerjd@gmail.com

Tuning: standard
no capo

ok so i had a hard time picking out the chords til i realized that it's not really 
chords at all.
rather a "bass/strum" picking where the bass changes every once in a while.
i indicated the bass change with an asterisk* which should make it easier to learn it.


Intro:
e|-----2---2---2---2----2---2---2---2-------------------------------------|
B|-----2---2---2---2----2---2---2---2-------------------------------------|
G|-----0---0---0---0----0---0---0---0-------------------------------------|
D|------------------------------------------------------------------------|
A|------------------------------------------------------------------------|
E|---3---3---3---3----3---3---3---3---------------------------------------|

Verse1
e|-----2---2---2---2----2---2---2---2----2---2---2---2----2---2---2---2--|
B|-----2---2---2---2----2---2---2---2----2---2---2---2----2---2---2---2--|
G|-----0---0---0---0----0---0---0---0----0---0---0---0----0---0---0---0--|
D|------------------------------------------------------0----------------|
A|--------------------3---3---3---3----0---0---0---0--------3---2---0----|
E|---3---3---3---3-------------------------------------------------------|

*Teach me a full, and i'll *teach you to sing. *When life keeps stealing your 
*me-*lo-*dy. *A-


e|-----2---2---2---2----2---2---2---2----2---2---2---2----2---2---2---2--|
B|-----2---2---2---2----2---2---2---2----2---2---2---2----2---2---2---2--|
G|-----0---0---0---0----0---0---0---0----0---0---0---0----0---0---0---0--|
D|------------------------------------------------------0----------------|
A|--------------------3---3---3---3----0---0---0---0--------3---2---0----|
E|---3---3---3---3-------------------------------------------------------|

[A]*round your finger *I'll be a string. *I will forget *ev-*ry-*thing *I


e|-----2---2---2---2----2---2---2---2----2---2---2---2---------------|
B|-----2---2---2---2----2---2---2---2----2---2---2---2---------------|
G|-----0---0---0---0----0---0---0---0----0---0---0---0---------------|
D|-------------------------------------------------------------------|
A|--------------------3---3---3---3----------------------------------|
E|---0---0---0---0---------------------0---0---0---0-----------------|

*know... about love*, i don't *know, about



e|-----2---2---2---2----2---2---2---2----2---2---2---2----2---2---2---2---|
B|-----2---2---2---2----2---2---2---2----2---2---2---2----2---2---2---2---|
G|-----0---0---0---0----0---0---0---0----0---0---0---0----0---0---0---0---|
D|------------------------------------------------------------------------|
A|---0---0---0---0----0---0---0---0---------------------------------------|
E|-------------------------------------3---3---3---3----3---3---3---3-----|

*love. Sure feels good at *first.

Verse2
e|-----2---2---2---2----2---2---2---2----2---2---2---2----2---2---2---2--|
B|-----2---2---2---2----2---2---2---2----2---2---2---2----2---2---2---2--|
G|-----0---0---0---0----0---0---0---0----0---0---0---0----0---0---0---0--|
D|------------------------------------------------------0----------------|
A|--------------------3---3---3---3----0---0---0---0--------3---2---0----|
E|---3---3---3---3-------------------------------------------------------|

I'd learn to dance if you *promise not to laugh and i *end up in a cast
from *fall-*ing *ov-*er


e|-----2---2---2---2----2---2---2---2----2---2---2---2----2---2---2---2---|
B|-----2---2---2---2----2---2---2---2----2---2---2---2----2---2---2---2---|
G|-----0---0---0---0----0---0---0---0----0---0---0---0----0---0---0---0---|
D|------------------------------------------------------0-----------------|
A|--------------------3---3---3---3----0---0---0---0--------3---2---0-----|
E|---3---3---3---3--------------------------------------------------------|

*And you can't get mad when some *girl you think i had puts a *story in your head when i 
*hard-*ly *know *her


e|-----2---2---2---2----2---2---2---2----2---2---2---2---------------|
B|-----2---2---2---2----2---2---2---2----2---2---2---2---------------|
G|-----0---0---0---0----0---0---0---0----0---0---0---0---------------|
D|-------------------------------------------------------------------|
A|--------------------3---3---3---3----------------------------------|
E|---0---0---0---0---------------------0---0---0---0-----------------|

*so about love*, i don't *know, about


e|-----2---2---2---2----2---2---2---2----2---2---2---2---------------|
B|-----2---2---2---2----2---2---2---2----2---2---2---2---------------|
G|-----0---0---0---0----0---0---0---0----0---0---0---0---------------|
D|-------------------------------------------------------------------|
A|---0---0---0---0----0---0---0---0----------------------------------|
E|-------------------------------------3---3---3---3-----------------|

*love. it sure feels good at* first

"chorus1"
e|-----2---2---2---2----2---2---2---2----2---2----2---2----2---2---2---2--|
B|-----2---2---2---2----2---2---2---2----2---2----2---2----2---2---2---2--|
G|-----0---0---0---0----0---0---0---0----0---0----0---0----0---0---0---0--|
D|------------------------------------------------------------------------|
A|-------------------------------------3---3----2---2----0---0---0---0----|
E|---3---3---3---3----3---3---3---3---------------------------------------|

Ooh, every spring needs a honey bee that stings. some *things *can't *change.


e|-----2---2---2---2----2---2---2---2----2---2----2---2----2---2--------|
B|-----2---2---2---2----2---2---2---2----2---2----2---2----2---2--------|
G|-----0---0---0---0----0---0---0---0----0---0----0---0----0---0--------|
D|----------------------------------------------------------------------|
A|-------------------------------------3---3----2---2----0---0----------|
E|---3---3---3---3----3---3---3---3-------------------------------------|

*Ooh, every fire get too close and it reminds you *things *can *change


e|-----2---2----2---2---2---2-------------2---2---2---2----2---2---2---2---|
B|-----2---2----2---2---2---2-------------2---2---2---2----2---2---2---2---|
G|-----0---0----0---0---0---0-------------0---0---0---0----0---0---0---2---|
D|-----------------------------0-------------------------------------------|
A|-------------------------------------------------------------------------|
E|---3---3----2---2---2---2--------------3---3---3---3----3---3---3---3----|

*in *love (*) but it sure feels good at* first


Verse3
e|-----2---2---2---2----2---2---2---2----2---2---2---2----2---2---2---2--|
B|-----2---2---2---2----2---2---2---2----2---2---2---2----2---2---2---2--|
G|-----0---0---0---0----0---0---0---0----0---0---0---0----0---0---0---0--|
D|------------------------------------------------------0----------------|
A|--------------------3---3---3---3----0---0---0---0--------3---2---0----|
E|---3---3---3---3-------------------------------------------------------|

For every heartbreak, there's a *sermon to be said and this *pastor in my head,
is preaching *to *the *choi-*r


e|-----2---2---2---2----2---2---2---2----2---2---2---2----2---2---2---2--|
B|-----2---2---2---2----2---2---2---2----2---2---2---2----2---2---2---2--|
G|-----0---0---0---0----0---0---0---0----0---0---0---0----0---0---0---0--|
D|------------------------------------------------------0----------------|
A|--------------------3---3---3---3----0---0---0---0--------3---2---0----|
E|---3---3---3---3-------------------------------------------------------|

*don't get me wrong cause it's *too soon to decide, but this *ain't my first rodeo
when my *hearts *been *roped *and


e|-----2---2---2---2----2---2---2---2----2---2---2---2--------|
B|-----2---2---2---2----2---2---2---2----2---2---2---2--------|
G|-----0---0---0---0----0---0---0---0----0---0---0---0--------|
D|------------------------------------------------------------|
A|--------------------3---3---3---3---------------------------|
E|---0---0---0---0---------------------0---0---0---0----------|

*tied in love*, i don't *know, about


e|-----2---2---2---2----2---2---2---2----2---2---2---2--------|
B|-----2---2---2---2----2---2---2---2----2---2---2---2--------|
G|-----0---0---0---0----0---0---0---0----0---0---0---0--------|
D|------------------------------------------------------------|
A|---0---0---0---0----0---0---0---0---------------------------|
E|-------------------------------------3---3---3---3----------|

*love but it sure feels good at* first.

"chorus2"
e|-----2---2---2---2----2---2---2---2----2---2----2---2----2---2---2---2---|
B|-----2---2---2---2----2---2---2---2----2---2----2---2----2---2---2---2---|
G|-----0---0---0---0----0---0---0---0----0---0----0---0----0---0---0---0---|
D|-------------------------------------------------------------------------|
A|-------------------------------------3---3----2---2----0---0---0---0-----|
E|---3---3---3---3----3---3---3---3----------------------------------------|

Ooh every autumn, colors come that you've forgotten. some *things *can't *change


e|-----2---2---2---2----2---2---2---2----2---2----2---2----2---2--------|
B|-----2---2---2---2----2---2---2---2----2---2----2---2----2---2--------|
G|-----0---0---0---0----0---0---0---0----0---0----0---0----0---0--------|
D|----------------------------------------------------------------------|
A|-------------------------------------3---3----2---2----0---0----------|
E|---3---3---3---3----3---3---3---3-------------------------------------|

*Ooh every frost, some live on and some are lost. *things *can *change *in


e|-----2---2----2---2---2---2------------2---2---2---2----2---2---2---2----|
B|-----2---2----2---2---2---2------------2---2---2---2----2---2---2---2----|
G|-----0---0----0---0---0---0------------0---0---0---0----0---0---0---2----|
D|-----------------------------0-------------------------------------------|
A|-------------------------------------------------------------------------|
E|---3---3----2---2---2---2-------------3---3---3---3----3---3---3---3-----|

*in *love (*) But it sure feels good at* first.

Outro (chorus)
e|-----2---2---2---2----2---2---2---2----2---2----2---2----2---2---2---2---|
B|-----2---2---2---2----2---2---2---2----2---2----2---2----2---2---2---2---|
G|-----0---0---0---0----0---0---0---0----0---0----0---0----0---0---0---0---|
D|-------------------------------------------------------------------------|
A|-------------------------------------3---3----2---2----0---0---0---0-----|
E|---3---3---3---3----3---3---3---3----------------------------------------|

*NA na na NA na na nanananana, *mmm *mmm *mmm


e|-----2---2---2---2----2---2---2---2----2---2----2---2----2---2--------|
B|-----2---2---2---2----2---2---2---2----2---2----2---2----2---2--------|
G|-----0---0---0---0----0---0---0---0----0---0----0---0----0---0--------|
D|----------------------------------------------------------------------|
A|-------------------------------------3---3----2---2----0---0----------|
E|---3---3---3---3----3---3---3---3-------------------------------------|

*NA na na NA na na nanananana, *mm *mm *mm *mm


e|-----2---2----2---2---2---2----------------------2-----------|
B|-----2---2----2---2---2---2----------------------2-----------|
G|-----0---0----0---0---0---0----------------------0-----------|
D|-----------------------------0-------------------0-----------|
A|-------------------------------------------------2-----------|
E|---3---3----2---2---2---2------------------------3-----------|

*mm *mmm (*)  But it sure felt good at *first



************************************
Tap to rate this tab
# A B C D E F G H I J K L M N O P Q R S T U V W X Y Z