Song name
# A B C D E F G H I J K L M N O P Q R S T U V W X Y Z

Train - Marry Me tab

Marry me - Train

I'm pretty sure this is 100% correct.
E-Mail me if you find any problems: alvinrox@hotmail.co.nz
Hope it's all good. Enjoy this song.
P.S. it's a good one to sing and play or just play to your girlfriend worked great for me n.n

Chords:
 C
|-----0-----------|
|-----1-----------|
|-----0-----------|
|-----2-----------|
|-----3-----------|
|-----0-----------|
   
 Cmaj7sus2
|-----0-----------|
|-----2-----------|
|-----0-----------|
|-----0-----------|
|-----1-----------|
|-----0-----------|

 Am7
|-----0-----------|
|-----1-----------|
|-----0-----------|
|-----2-----------|
|-----0-----------|
|-----0-----------|

 Gsus4
|-----0-----------|
|-----1-----------|
|-----0-----------|
|-----0-----------|
|-----x-----------|
|-----3-----------|

 G/B
|-----0-----------|
|-----3-----------|
|-----0-----------|
|-----0-----------|
|-----2-----------|
|-----0-----------|


Intro
          
    C                                 Cmaj7sus2
e|---------------------------------------------------------------------------|
B|--1---------1------1---------1------1-------1-------1--------1-------------|
G|------0-------0---------0------0--------0-----0---------0------0-----------|
D|----2-----------2-----2----------2----0---------0-----0----------0---------|
A|--3------3---------3------3---------2-----2---------2------2---------------|
E|---------------------------------------------------------------------------|
   Am7                              Gsus4
e|---------------------------------------------------------------------------|
B|-1---------1------1--------1------1--------1------1------------------------|
G|-----0-------0--------0------0--------0------0--------REST-----------------|
D|---2-----------2----2----------2----0----------0---------------------------|
A|-0------0---------0------0-------------------------------------------------|
E|----------------------------------3------3--------3------------------------|

Verse
         
    C                                 Cmaj7sus2       G/B
e|---------------------------------------------------------------------------|
B|--1---------1------1---------1------1-------1-------3--------3-------------|
G|------0-------0---------0------0--------0-----0---------0------0-----------|
D|----2-----------2-----2----------2----0---------0-----0----------0---------|
A|--3------3---------3------3---------2-----2---------2------2---------------|
E|---------------------------------------------------------------------------|
   
   Am7                              Gsus4
e|---------------------------------------------------------------------------|
B|-1---------1------1--------1------1--------1------1---------1--------------|
G|-----0-------0--------0------0--------0------0--------0-------0------------|
D|---2-----------2----2----------2----0----------0----0-----------0----------|
A|-0------0---------0------0-------------------------------------------------|
E|----------------------------------3------3--------3------3-----------------|
   
    C                                 Am7             G/B
e|---------------------------------------------------------------------------|
B|--1---------1------1---------1------1-------1-------3--------3-------------|
G|------0-------0---------0------0--------0-----0---------0------0-----------|
D|----2-----------2-----2----------2----0---------0-----0----------0---------|
A|--3------3---------3------3---------2-----2---------2------2---------------|
E|---------------------------------------------------------------------------|
  
   Am7                              Gsus4
e|---------------------------------------------------------------------------|
B|-1---------1------1--------1------1--------1------1---------1--------------|
G|-----0-------0--------0------0--------0------0--------0-------0------------|
D|---2-----------2----2----------2----0----------0----0-----------0----------|
A|-0------0---------0------0-------------------------------------------------|
E|----------------------------------3------3--------3------3-----------------|
  
    C                                 Cmaj7sus2
e|---------------------------------------------------------------------------|
B|--1---------1------1---------1------1-------1-------1--------1-------------|
G|------0-------0---------0------0--------0-----0---------0------0-----------|
D|----2-----------2-----2----------2----0---------0-----0----------0---------|
A|--3------3---------3------3---------2-----2---------2------2---------------|
E|---------------------------------------------------------------------------|
   Am7                              Gsus4
e|---------------------------------------------------------------------------|
B|-1---------1------1--------1------1--------1------1------------------------|
G|-----0-------0--------0------0--------0------0--------REST-----------------|
D|---2-----------2----2----------2----0----------0---------------------------|
A|-0------0---------0------0-------------------------------------------------|
E|----------------------------------3------3--------3------------------------|

Chorus

    C                                 Cmaj7sus2        G/B
e|---------------------------------------------------------------------------|
B|--1---------1------1---------1------1-------1-------3--------3-------------|
G|------0-------0---------0------0--------0-----0---------0------0-----------|
D|----2-----------2-----2----------2----0---------0-----0----------0---------|
A|--3------3---------3------3---------2-----2---------2------2---------------|
E|---------------------------------------------------------------------------|
   Am7                              Gsus4
e|---------------------------------------------------------------------------|
B|-1---------1------1--------1------1--------1------1---------1--------------|
G|-----0-------0--------0------0--------0------0--------0-------0------------|
D|---2-----------2----2----------2----0----------0----0-----------0----------|
A|-0------0---------0------0-------------------------------------------------|
E|----------------------------------3------3--------3------3-----------------|
     
    C                                 Cmaj7sus2       G/B
e|---------------------------------------------------------------------------|
B|--1---------1------1---------1------1-------1-------3--------3-------------|
G|------0-------0---------0------0--------0-----0---------0------0-----------|
D|----2-----------2-----2----------2----0---------0-----0----------0---------|
A|--3------3---------3------3---------2-----2---------2------2---------------|
E|---------------------------------------------------------------------------|

   Am7                              Gsus4
e|---------------------------------------------------------------------------|
B|-1---------1------1--------1------1--------1------1---------1--------------|
G|-----0-------0--------0------0--------0------0--------0-------0------------|
D|---2-----------2----2----------2----0----------0----0-----------0----------|
A|-0------0---------0------0-------------------------------------------------|
E|----------------------------------3------3--------3------3-----------------|

    C                                 Cmaj7sus2
e|---------------------------------------------------------------------------|
B|--1---------1------1---------1------1-------1-------1--------1-------------|
G|------0-------0---------0------0--------0-----0---------0------0-----------|
D|----2-----------2-----2----------2----0---------0-----0----------0---------|
A|--3------3---------3------3---------2-----2---------2------2---------------|
E|---------------------------------------------------------------------------|

   Am7                              Gsus4
e|---------------------------------------------------------------------------|
B|-1---------1------1--------1------1--------1------1------------------------|
G|-----0-------0--------0------0--------0------0--------REST-----------------|
D|---2-----------2----2----------2----0----------0---------------------------|
A|-0------0---------0------0-------------------------------------------------|
E|----------------------------------3------3--------3------------------------|

Verse

    C                                 Cmaj7sus2       G/B
e|---------------------------------------------------------------------------|
B|--1---------1------1---------1------1-------1-------3--------3-------------|
G|------0-------0---------0------0--------0-----0---------0------0-----------|
D|----2-----------2-----2----------2----0---------0-----0----------0---------|
A|--3------3---------3------3---------2-----2---------2------2---------------|
E|---------------------------------------------------------------------------|

   Am7                              Gsus4
e|---------------------------------------------------------------------------|
B|-1---------1------1--------1------1--------1------1---------1--------------|
G|-----0-------0--------0------0--------0------0--------0-------0------------|
D|---2-----------2----2----------2----0----------0----0-----------0----------|
A|-0------0---------0------0-------------------------------------------------|
E|----------------------------------3------3--------3------3-----------------|

    C                                 Cmaj7sus2       G/B
e|---------------------------------------------------------------------------|
B|--1---------1------1---------1------1-------1-------3--------3-------------|
G|------0-------0---------0------0--------0-----0---------0------0-----------|
D|----2-----------2-----2----------2----0---------0-----0----------0---------|
A|--3------3---------3------3---------2-----2---------2------2---------------|
E|---------------------------------------------------------------------------|

   Am7                              Gsus4
e|---------------------------------------------------------------------------|
B|-1---------1------1--------1------1--------1------1---------1--------------|
G|-----0-------0--------0------0--------0------0--------0-------0------------|
D|---2-----------2----2----------2----0----------0----0-----------0----------|
A|-0------0---------0------0-------------------------------------------------|
E|----------------------------------3------3--------3------3-----------------|

Bridge

    C                                 Cmaj7sus2
e|---------------------------------------------------------------------------|
B|--1---------1------1---------1------1-------1-------1--------1-------------|
G|------0-------0---------0------0--------0-----0---------0------0-----------|
D|----2-----------2-----2----------2----0---------0-----0----------0---------|
A|--3------3---------3------3---------2-----2---------2------2---------------|
E|---------------------------------------------------------------------------|

   Am7                              Gsus4
e|---------------------------------------------------------------------------|
B|-1---------1------1--------1------1--------1------1------------------------|
G|-----0-------0--------0------0--------0------0--------REST-----------------|
D|---2-----------2----2----------2----0----------0---------------------------|
A|-0------0---------0------0-------------------------------------------------|
E|----------------------------------3------3--------3------------------------|


Chorus

    C                                 Cmaj7sus2        G/B
e|---------------------------------------------------------------------------|
B|--1---------1------1---------1------1-------1-------3--------3-------------|
G|------0-------0---------0------0--------0-----0---------0------0-----------|
D|----2-----------2-----2----------2----0---------0-----0----------0---------|
A|--3------3---------3------3---------2-----2---------2------2---------------|
E|---------------------------------------------------------------------------|
   Am7                              Gsus4
e|---------------------------------------------------------------------------|
B|-1---------1------1--------1------1--------1------1---------1--------------|
G|-----0-------0--------0------0--------0------0--------0-------0------------|
D|---2-----------2----2----------2----0----------0----0-----------0----------|
A|-0------0---------0------0-------------------------------------------------|
E|----------------------------------3------3--------3------3-----------------|
     
    C                                 Cmaj7sus2       G/B
e|---------------------------------------------------------------------------|
B|--1---------1------1---------1------1-------1-------3--------3-------------|
G|------0-------0---------0------0--------0-----0---------0------0-----------|
D|----2-----------2-----2----------2----0---------0-----0----------0---------|
A|--3------3---------3------3---------2-----2---------2------2---------------|
E|---------------------------------------------------------------------------|

   Am7                              Gsus4
e|---------------------------------------------------------------------------|
B|-1---------1------1--------1------1--------1------1---------1--------------|
G|-----0-------0--------0------0--------0------0--------0-------0------------|
D|---2-----------2----2----------2----0----------0----0-----------0----------|
A|-0------0---------0------0-------------------------------------------------|
E|----------------------------------3------3--------3------3-----------------|

    C                                 Cmaj7sus2
e|---------------------------------------------------------------------------|
B|--1---------1------1---------1------1-------1-------1--------1-------------|
G|------0-------0---------0------0--------0-----0---------0------0-----------|
D|----2-----------2-----2----------2----0---------0-----0----------0---------|
A|--3------3---------3------3---------2-----2---------2------2---------------|
E|---------------------------------------------------------------------------|

   Am7                              Gsus4
e|---------------------------------------------------------------------------|
B|-1---------1------1--------1------1--------1------1------------------------|
G|-----0-------0--------0------0--------0------0--------REST-----------------|
D|---2-----------2----2----------2----0----------0---------------------------|
A|-0------0---------0------0-------------------------------------------------|
E|----------------------------------3------3--------3------------------------|



Tabbed by Simon Groufsky
Tap to rate this tab
# A B C D E F G H I J K L M N O P Q R S T U V W X Y Z