Song name
# A B C D E F G H I J K L M N O P Q R S T U V W X Y Z

Train - Mississippi tab

Help us improve GuitareTab! Take a short survey!
-------------------------------------------------------------------------------
			     MISSISSIPPI - Train
-------------------------------------------------------------------------------
Tabbed by: benfold15
Email: badgerhoops15@hotmail.com

I believe that this is a more accurate tab of what the acoustic guitar does throughout the song.  Enjoy.

Tuning: Standard

e|-----3-----2-----3-----2-------3-----2-----3-----2-------------------------|
B|---------3-----3-----3-----3-------3-----3-----3-----3---------------------|
G|--0----0-----0-----0-----0---0---0-----0-----0-----0---0-------------------|
D|---------------------------------------------------------------------------|
A|---------------------------------------------------------------------------|
E|---------------------------------------------------------------------------|

When they switch to the E minor chord, you can play it like this:

e|----3-----2-----3----2-------3-----2-----3-----2---------------------------|
B|--------3-----3----3-----3-------3-----3-----3-----3-----------------------|
G|---------------------------------------------------------------------------|
D|--2---2-----2----2-----2---2---2-----2-----2-----2---2---------------------|
A|---------------------------------------------------------------------------|
E|---------------------------------------------------------------------------|

The rhythm may be tricky at first, so just listen to the song and you'll be able to hear it.


| /  slide up
| \  slide down
| h  hammer-on
| p  pull-off
| ~  vibrato
| +  harmonic
| x  Mute note
===============================================================================
Related for Mississippi tab