Song name
# A B C D E F G H I J K L M N O P Q R S T U V W X Y Z

Train - Following Rita tab

-------------------------------------------------------------------------------
Following Rita- Train
-------------------------------------------------------------------------------

Tabbed by: Geno
Email: gnogtr@yahoo.com

I love this song!  I think this cd is better than Drops of Jupiter.  This is my
favorite on the cd.  All the parts are labeled, you can figure out the order.
Where it says “electric strum,” basically pick through the chords in a strumming manor.  

Tuning: Standard

Intro: Acoustic/Piano
C(9)-G(I)-Ab (Repeat and add Hammond)

Verse: Acoustic/Piano
G-C-F (Repeat for verse)

Chorus: Acoustic/Electric/Piano

C(9)-G(I)-Ab (repeat 3 times)
Bb(9)-Ab-Bb(9)-Ab

Electric: (clean)
e|---------------------------------------------------------------------------|
B|--------3-------3----------------3-------3---------------3-------3---------|
G|------5-----------------5------5-----------------5-----5-------------------|
D|----5---------5-------6------5---------5-------6-----5---------5-----------|
A|--3---------5-------6------3---------5-------6-----3---------5-------------|
E|----------3-------4----------------3-------4---------------3---------------|

e|---------------------------------------------------------------------------|
B|-----------4---1-----------4----------1---------4--------------------------|
G|--------5--5---3—(strum)---5—(strum)--3-(strum)-5-(strum)------------------|
D|------6--------3-----------6----------3---------6--------------------------|
A|----6----------1-----------6----------1---------6--------------------------|
E|--4------------------------4--------------------4--------------------------|

Bridge: Acoustic/Piano

D(9)-C(2)-G (Repeat 3 times)
(electric joins, down strum) F

Chord Fingering:

C: x32010
G: 320033
F: 133211
Ab: 466544
Bb(9): x13311
D(9): xx0230
G(I): 355433
C(9): x35533 (You can also use this same chord in the verse, just play it: 
              x32033)

Enjoy!
Tap to rate this tab
# A B C D E F G H I J K L M N O P Q R S T U V W X Y Z