Song name
# A B C D E F G H I J K L M N O P Q R S T U V W X Y Z

Train - Shes On Fire tab

-------------------------------------------------------------------------------
                             SHE'S ON FIRE - Train
-------------------------------------------------------------------------------
Tabbed by: firebowl99

Tuning: Standard

Solo

e|-----------------------------------------|
B|--9---7-------7--------------------------|
G|---------9-------9--------9--------------|
D|--9---9--9----9--9---9h11---11p9---------|
A|-----------------------------------------|
E|-----------------------------------------|

e|-----------------------------------------|
B|--9---7-------7--------------------------|
G|---------9---------9---------------------|
D|--9---9--9----9----9---------------------|
A|-----------------------------------------|
E|-----------------------------------------|

e|-----------------------------------------|
B|-9h10p9---------------10p9h10p12b--------|
G|--------11p9--------9--------------------|
D|---------------9h11----------------------|
A|-----------------------------------------|
E|-----------------------------------------|

e|-0-0--0----------------------------------------|
B|-7-9--7------------------------10-9-10/12~ ----|
G|--------9--------9-----------------------------|
D|------------9h11----------11p9-----------------|
A|-----------------------------------------------|
E|-----------------------------------------------|




************************************

| /   slide up
| \   slide down
| h   hammer-on
| p   pull-off
| ~   vibrato
| +   harmonic
| x   Mute note
| b   Bend
| pb  Pre-bend
| br  Bend release
| pbr Pre-bend release
| brb Bend release bend

************************************
Tap to rate this tab
 
# A B C D E F G H I J K L M N O P Q R S T U V W X Y Z