Song name
# A B C D E F G H I J K L M N O P Q R S T U V W X Y Z

Traktion - Angry Midget tab

Tabbed by: Stephen Kelley


Tuning:standard
intro --> 8 times
e|-------------------------------------------------------------------------|
B|-------------------------------------------------------------------------|
G|-------------------------------------------------------------------------|
D|--7-7-------5--5---------------------------------------------------------|
A|--5-5--5-5--3--3---------------------------------------------------------|
E|-------3-3---------------------------------------------------------------|
Verse is same as intro --> 4 times
Chorus --> Six times
e|-------------------------------------------------------------------------|
B|-------------------------------------------------------------------------|
G|-------------------------------------------------------------------------|
D|-7-7--5---7-7--5-5-------------------------------------------------------|
A|-5-5--3---5-5--3-3-------------------------------------------------------|
E|-------------------------------------------------------------------------|

Tab is 100% correct. 
Tap to rate this tab
# A B C D E F G H I J K L M N O P Q R S T U V W X Y Z