Song name
# A B C D E F G H I J K L M N O P Q R S T U V W X Y Z

Tram - Haas Kicker tab

Guitar #1
E|-------------9---------|
B|---------12-----12-----|
G|--9-----------------9--|
D|-----11----------------|
A|--9-------------9------|
E|-----------------------|

(Repeat for 24 measures)

Guitar #2
E|--------5--4-----7-----7---12/14--14--12--14--14--17--16--|
B|--7--7--------7-----7------12/14--14--12--14--14--14------|
G|--6--6--------6-----6-------------------------------------|
D|--4--4--------4-----4-------------------------------------|
A|----------------------------------------------------------|
E|----------------------------------------------------------|

(Repeat for 24 measures)
Tap to rate this tab
 
# A B C D E F G H I J K L M N O P Q R S T U V W X Y Z