Song name
# A B C D E F G H I J K L M N O P Q R S T U V W X Y Z

Trampled By Turtles - School Bus Driver tab

-------------------------------------------------------------------------------
			     school bus driver - Trampled by turtles
-------------------------------------------------------------------------------
Tabbed by:johnsin
Email:

Tuning:Standrd    in G

     G          G          C                    Emx3   Dx3

e|---3-3--------3-3--------3-3---------3---3----0-------2--------------------|
B|---3-3--------3-3--------3-3---------3---3----0-------3--------------------|
G|---0-0--------0-0--------0-0----0----0---0----0-------2--------------------|
D|---0-0----0---0-0----0---2-2-0h2--------------2-------0--------------------|
A|---2-2-0h2----2-2-0h2---3---------------------2----------------------------|
E|-3----------3----------------------3---2------0----------------------------|

Chorus       Cx4     Gx3  repeat 3x then    Am    Em   D 

e|-----------0-------3----------------------0-----0----2---------------------|
B|-----------1-------3----------------------1-----0----3---------------------|
G|-----------0-------0----------------------2-----0----2---------------------|
D|-----------2-------0----------------------2-----2----0---------------------|
A|----0-2-3--3-------2----------------------0-----2--------------------------|
E|--3----------------3----------------------------0--------------------------|

e|---------------------------------------------------------------------------|
B|---------------------------------------------------------------------------|
G|---------------------------------------------------------------------------|
D|---------------------------------------------------------------------------|
A|---------------------------------------------------------------------------|
E|---------------------------------------------------------------------------|




| /  slide up
| \  slide down
| h  hammer-on
| p  pull-off
| ~  vibrato
| +  harmonic
| x  Mute note
===============================================================================
Tap to rate this tab
 
# A B C D E F G H I J K L M N O P Q R S T U V W X Y Z