Song name
# A B C D E F G H I J K L M N O P Q R S T U V W X Y Z

Trampled By Turtles - At Your Window chords

Highlighted       Show chord diagrams
-------------------------------------------------------------------------------
			     
-------------------------------------------------------------------------------
Tabbed by: johnsin
Email:

capo 1st fret  key of F#/Gb
chords relative to capo

e|-----1-1------1-1------1-1------1-1----------------------------------------|
B|-----1-1------1-1------1-1------1-1----------------------------------------|
G|-----2-2--0h2-2-2------2-2--0h2-2-2----------------------------------------|
D|-----3-3------3-3---3--3-3------3-3----------------------------------------|
A|---------------------------------------------------------------------------|
E|--1------------------------------------------------------------------------|

F                          Bb                        F
i wake the mornin wonder, and im all lost in the world

Dm                        C
of echoed situations, and cursory illusions

F                           Bb                   F 
im surrounded by forever, but i dont have any time

Dm                                       C
left to wander in amusement... left to ride; my breath is dyin





Bb                           F
But I love you little darlin

Bb                        F
and Ill love you till I die

Bb                       Dm
Like sundown in the valley

C       
or the stars alone at night





Through empty bottle alleys

You come shinin like the sun

And with your golden fingers

You save me from drowning





and I love you little darlin

and Ill love you till I die

Like sundown in the valley

Or the stars alone at night




Well life goes on around me

Days are riding on the dawn

To infuse the world with words

Its just your way of talkin





And I love you little darlin

And Ill love you till I die

Like sundown in the valley

Or the stars alone at night




But I love you little darlin

And Ill love you till I die

Like sundown in the valley

Or the stars alone at night




| /  slide up
| \  slide down
| h  hammer-on
| p  pull-off
| ~  vibrato
| +  harmonic
| x  Mute note
===============================================================================
Tap to rate this tab
 
# A B C D E F G H I J K L M N O P Q R S T U V W X Y Z